Oops, an error
Loading. Please wait.

Subscription Tab

197 views 3 this week
no commentswrite comment
1 2 3 4 5
3 more votes to show rating
add to favorites
launch autoscroll
font size
0
reset
how to read this tab
guitar tuner
Autoscroll
slow
fast
+/-
esc
set tempo
stop
Help us to improve Ultimate-Guitar.com Take our survey!
×
Author
Tabbers playing skills
beginner
-------------------------------------------------------------------------------
Subscription - Feederz
Ever Feel Like Killing Your Boss
-------------------------------------------------------------------------------
Tabbed by: axeslash
Email: holmzito@yahoo.com

Tuning: Standard

e|-------------7--7-7--7-7--|
B|-9--9--7--9--7--7-7--7-7--|
G|-9--9--7--9--8--8-8--8-8--|
D|-9--9--7--9--9--9-9--9-9--|
A|-7--7--5--7--9--9-9--9-9--|
E|-------------7--7-7--7-7--| x4

e|-5--5--5--5---8---8---8---8--3--3--3--3--3--3--3--3--|
B|-5--5--5--5---8---8---8---8--3--3--3--3--3--3--3--3--|
G|-6--6--6--6---9---9---9---9--4--4--4--4--4--4--4--4--|
D|-7--7--7--7--10--10--10--10--5--5--5--5--5--5--5--5--|
A|-7--7--7--7--10--10--10--10--5--5--5--5--5--5--5--5--|
E|-5--5--5--5---8---8---8---8--3--3--3--3--3--3--3--3--|

e|-5--5--5--5---8---8---8---8----------------------------------|
B|-5--5--5--5---8---8---8---8--12--12--12--12--12--12--12--12--|
G|-6--6--6--6---9---9---9---9--12--12--12--12--12--12--12--12--|
D|-7--7--7--7--10--10--10--10--12--12--12--12--12--12--12--12--|
A|-7--7--7--7--10--10--10--10--10--10--10--10--10--10--10--10--|
E|-5--5--5--5---8---8---8---8----------------------------------|

e|-------------7--7-7--7-7--|
B|-9--9--7--9--7--7-7--7-7--|
G|-9--9--7--9--8--8-8--8-8--|
D|-9--9--7--9--9--9-9--9-9--|
A|-7--7--5--7--9--9-9--9-9--|
E|-------------7--7-7--7-7--| x6

e|-5--5--5--5---8---8---8---8--3--3--3--3--3--3--3--3--|
B|-5--5--5--5---8---8---8---8--3--3--3--3--3--3--3--3--|
G|-6--6--6--6---9---9---9---9--4--4--4--4--4--4--4--4--|
D|-7--7--7--7--10--10--10--10--5--5--5--5--5--5--5--5--|
A|-7--7--7--7--10--10--10--10--5--5--5--5--5--5--5--5--|
E|-5--5--5--5---8---8---8---8--3--3--3--3--3--3--3--3--|

e|-5--5--5--5---8---8---8---8----------------------------------|
B|-5--5--5--5---8---8---8---8--12--12--12--12--12--12--12--12--|
G|-6--6--6--6---9---9---9---9--12--12--12--12--12--12--12--12--|
D|-7--7--7--7--10--10--10--10--12--12--12--12--12--12--12--12--|
A|-7--7--7--7--10--10--10--10--10--10--10--10--10--10--10--10--|
E|-5--5--5--5---8---8---8---8----------------------------------|

e|-------------7--7-7--7-7--|     e|-------------|
B|-9--9--7--9--7--7-7--7-7--|     B|-9--9--7--9--|
G|-9--9--7--9--8--8-8--8-8--|     G|-9--9--7--9--|
D|-9--9--7--9--9--9-9--9-9--|     D|-9--9--7--9--|
A|-7--7--5--7--9--9-9--9-9--|     A|-7--7--5--7--|
E|-------------7--7-7--7-7--| x3  E|-------------|


| /  slide up
| \  slide down
| h  hammer-on
| p  pull-off
| ~  vibrato
| +  harmonic
| x  Mute note
===============================================================================
Suggest correction
Give kudos to tab author, rate the tab!
1 2 3 4 5
comments
print report bad tab
guest
You may want to rate the tab now too:
select rating
Wanna post a correction for this tab? Suggest correction