Oops, an error
Loading. Please wait.

Small Mind Tab

46 views 1 this week
no commentswrite comment
1 2 3 4 5
please rate
add to favorites
launch autoscroll
font size
0
reset
how to read this tab
guitar tuner
Autoscroll
slow
fast
+/-
esc
set tempo
stop
Help us to improve Ultimate-Guitar.com Take our survey!
×
-------------------------------------------------------------------------------
                             Small Mind - FeelAbout
-------------------------------------------------------------------------------
Tabbed by: Jill Johnson
Email: jill_johnson82@yahoo.com

www.myspace.com/feelabout
www.feelabout.com

Tuning: standard E

Intro
e|--------------------------------------[12]---------|
B|-----2H3P2---------5-----------------------[12]----|
G|-----------2-----4---4-----------------------------| X4
D|---2----------/4-------4/5-------------------------|
A|-0-------------------------------------------------|
E|---------------------------------------------------|

Verse
e|----------------------------------------------------------------------------|
B|----------------------------------------------------------------------------|
G|----------------------------------------------------------------------------| X2
D|----------------------------------------------------------------------------|
A|--------------5-7-7--------------5-7-7--------------5-7-7--------------5----|
E|---5-7--7-7-7---------5-7--7-7-7---------5-7--7-7-7---------5-7--7-7-7------|

Riff 1
e|------------------|
B|------------------|
G|------------------|
D|--7---9---7---9---|
A|--7---9---7---9---|
E|--5---7---5---7---|


Riff 2
e|----------------------------------------------------------------------------|
B|----------------------------------------------------------------------------|
G|---------------------------------[7]-----------------------------------[7]--| 
D|----------------------------------------------------------------------------|
A|--------------5-7-7---------------------------------5-7-7-------------------|
E|---5-7--7-7-7---------5-7--7-7-7---------5-7--7-7-7---------5-7--7-7-7------|

e|----------------------------------------------------------------------------|
B|----------------------------------------------------------------------------|
G|---------------------------------[9]-----------------------------------[9]--| 
D|----------------------------------------------------------------------------|
A|--------------7-9-9---------------------------------7-9-9-------------------|
E|---7-9--9-9-9---------7-9--9-9-9---------7-9--9-9-9---------7-9--9-9-9------|


Chorus 
e|--------------|--------------------------------------------------|
B|--------------|------3-2---------5-4--------7-5--------10-8-7----|
G|--2--4--5--7--|----------2-----4-----4----5-----5----7-----------|
D|--2--4--5--7--|----2--------/4---------/5---------/7-------------|
A|--0--2--3--5--|--0-----------------------------------------------|
E|--------------|--------------------------------------------------|


Riff 3 (like intro)
e|--------------------------------------[12]---------|
B|-----2H3P2---------5-----------------------[12]----|
G|-----------2-----4---4-----------------------------| X6
D|---2----------/4-------4/5-------------------------|
A|-0-------------------------------------------------|
E|---------------------------------------------------|


Chorus over solo
e|--------------|
B|--------------|
G|--2--4--5--7--|
D|--2--4--5--7--|
A|--0--2--3--5--|
E|--------------|


Outro
e|--------------------------------------[12]---------|
B|-----2H3P2---------5-----------------------[12]----|
G|-----------2-----4---4-----------------------------| 
D|---2----------/4-------4/5-------------------------|
A|-0-------------------------------------------------|
E|---------------------------------------------------|


************************************

| /   slide up
| \   slide down
| h   hammer-on
| p   pull-off
| ~   vibrato
| +   harmonic
| x   Mute note
| b   Bend
| pb  Pre-bend
| br  Bend release
| pbr Pre-bend release
| brb Bend release bend

************************************
Suggest correction
Give kudos to tab author, rate the tab!
1 2 3 4 5
comments
print report bad tab
guest
You may want to rate the tab now too:
select rating
Wanna post a correction for this tab? Suggest correction