Oops, an error
Loading. Please wait.

Heartless tab

version 2
version 2

Whole song

89 views 1 this week
no commentswrite comment
1 2 3 4 5
3 more votes to show rating
add to favorites
×
Save as Personal and add changes to this tab that will be seen only by you. Learn more ›
×
You can save this tab as Personal to edit and correct it or add notes. All changes will be seen only by you. Learn more »
launch autoscroll
font size
0
reset
how to read this tab
guitar tuner
edit
Autoscroll
slow
fast
+/-
esc
set tempo
stop
    e.----------------------------------------.
    B.----------------------------------------.
    G.------5--------2--------4--------4------.
    D.--7-7-----3-3------5-5------5-5---------.
    A.----------------------------------------.
    E.----------------------------------------.

    e.------------------------------------------.
    B.------------------------------------------.
    G.-------5--------2----------9---------4----.
    D.--7-7------3-3------10-10-------5-5-------.
    A.------------------------------------------.
    E.------------------------------------------.
I don't care about what you have to say at all
I don't care about your destiny or you life
A5                      F5                      G5
and I don't care about all the things you did for me
A5                      F5                 C5       G5
I don't care if I am breaking your heart with this song     F5- G5


  A5                   F5                  G5
Cause a heartbreaker starts with a broken heart
  A5                 F5        C5   G5
and I'm broken then run girl, just run
  A5                  F5       C5                    G5
don't try to fix me, run away, don't waste your time with me
  A5                   F5                  G5           G 
cause a heartbreaker starts with a broken heart without hope


A5             F5            G5
I'm not faking any feeling tonight
 A5                     F5                 C5     G5
I said everything to you but you're still here with me
 A5            F5                  G5
maybe someday I will be again the way i was
A5                    F5           C5           G5
but for now i don't really care if you are here or not


 A5                    F5                  G5
Cause a heartbreaker starts with a broken heart
 A5                  F5        C5   G5
and I'm broken then run girl, just run
  A5                  F5        C5                 G5
don't try to fix me, run away, don't waste your time with me
  A5                 F5                    G5
cause a heartbreaker starts with a broken heart


    e.--13----13----13----13----15----15----15---15--------.
    B.-----13----13----13----13----12----12----12----12----.
    G.-----------------------------------------------------.
    D.-----------------------------------------------------.
    A.-----------------------------------------------------.
    E.-----------------------------------------------------.


    e.--13----13----13----13----15----15--------12h13p12-----------------.
    B.-----13----13----13----13----12----12--------------13--------------.
    G.------------------------------------------------------12/10/9------.
    D.--------------------------------------------------------------10---.
    A.-------------------------------------------------------------------.
    E.-------------------------------------------------------------------.

    e.--13----13----13----13----15----15----15---15--------.
    B.-----13----13----13----13----12----12----12----12----.
    G.-----------------------------------------------------.
    D.-----------------------------------------------------.
    A.-----------------------------------------------------.
    E.-----------------------------------------------------.

    e.--13----13----13----13----15----15----15----15----15----15-------15---.
    B.-----13----13----13----13----12----12----12----12----12----12---------.
    G.----------------------------------------------------------------------.
    D.----------------------------------------------------------------------.
    A.----------------------------------------------------------------------.
    E.----------------------------------------------------------------------.


I don't need your time, your love or anything from you

this is just a fucking waste of time

take you chance and run away or don't you realize

it's too late to try to save me


  A5                   F5                 G5
Cause a heartbreaker starts with a broken heart
  A5               F5          C5   G5
and I'm broken then run girl, just run
  A5                  F5         C5                      G5
don't try to fix me, run away, don't waste your time with me
  A5                   F5                  G5
cause a heartbreaker starts with a broken heart without hope

            
            
Suggest correction
Creating personal tab
Creating personal tab
You can edit any tab online and save it as your Personal.

You can edit, replace or remove any tab part or add personal notes – all changes will be seen only by you.

Personal tabs can be accessed anytime from any device, even offline.
Learn more »
Give kudos to tab author, rate the tab!
1 2 3 4 5
comments
print report bad tab
guest
Wanna post a correction for this tab? Suggest correction