Oops, an error
Loading. Please wait.

Break The Ice Tab

version 1
version 1

Whole song

Interactive

3,592 views 1 this week
1 commentread comment
1 2 3 4 5
please rate
add to favorites
launch autoscroll
font size
0
reset
how to read this tab
guitar tuner
Autoscroll
slow
fast
+/-
esc
set tempo
stop
Help us to improve Ultimate-Guitar.com Take our survey!
×
Author
Difficulty
Tuning
novice
D A D G B E
-------------------------------------------------------------------------------
                             Break The Ice - Fei Comodo
-------------------------------------------------------------------------------
Tabbed by:Maximilliano2

cba to tab both guitar parts so il just do the best bits of each
I know theres gonna be quite alot of mistakes on this but there werent any tabs for this 
before so its better than nothing!
Constructive critiscism appreciated
Tuning: Drop D
Intro/Chorus x2
e|----------------------------------------------------------------------------------|
B|----------------------------------------------------------------------------------|
G|---16-16-16-16----16--16--16-16-16-16-16----15-15-15-15----15--15--15-15-15-15-15-|
D|----------------------------------------------------------------------------------|
A|---14-14-14-14----14--14--14-14-14-14-14----13-13-13-13----13--13--13-13-13-13-13-|
D|----------------------------------------------------------------------------------|

e|-------------------------------------------------------------------------------------|
B|-------------------------------------------------------------------------------------|
G|--13-13-13-13-----13--13--13-13-13-13-13----15-15-15-15----15--15--13-13-13-15-15-15-|
D|-------------------------------------------------------------------------------------|
A|--11-11-11-11-----11--11--11-11-11-11-11----13-13-13-13----13--13--11-11-11-13-13-13-|
D|-------------------------------------------------------------------------------------|

Intro continued
e|-----------------------------------|
B|-----------------------------------|
G|--16-15-16---18-20-18--16-15-------|
D|-----------------------------------|
A|--14-13-14---16-18-16--14-13-------|
D|-----------------------------------|x3

e|-----------------------------------|
B|-----------------------------------|
G|--16-16-15----13-13-13-15-15-15----|
D|-----------------------------------|
A|--14-14-------11-11-11-13-13-13----|
D|-----------------------------------|

Verse x2
e|-------------------------------------|
B|-------------------------------------|
G|--16-15-16---18-20-18--16-15-16------|
D|-------------------------------------|
A|--14-13-14---16-18-16--14-13-14------|
D|-------------------------------------|x2

not quite sure about this bit
PM
e|---------------------------------------------------------------------|
B|---------------------------------------------------------------------|
G|---------------------------------------------------------------------|
D|--0-0-0-0-0-0--0-00-00-0-0---4-4-4-4-44-4-4--4-44-44-44--4-4---------|
A|--0-0-0-0-0-0--0-00-00-0-0---4-4-4-4-44-4-4--4-44-44-44--4-4---------|
D|--0-0-0-0-0-0--0-00-00-0-0---4-4-4-4-44-4-4--4-44-44-44--4-4---------|
    . . . . . .  . .. .. . .

Pre-chorus
e|-------------------------------------------------------------------|
B|-------------------------------------------------------------------|
G|----------------------------------------------13-13-13---15-15-15--|
D|--9-9-9--9-9-9--11-11-11--9-9-9------------------------------------|
A|--9-9-9--9-9-9--11-11-11--9-9-9---------------11-11-11---13-13-13--|
D|--9-9-9--9-9-9--11-11-11--9-9-9------------------------------------|

Chorus x2
e|----------------------------------------------------------------------------------|
B|----------------------------------------------------------------------------------|
G|---16-16-16-16----16--16--16-16-16-16-16----15-15-15-15----15--15--15-15-15-15-15-|
D|----------------------------------------------------------------------------------|
A|---14-14-14-14----14--14--14-14-14-14-14----13-13-13-13----13--13--13-13-13-13-13-|
D|----------------------------------------------------------------------------------|

e|-------------------------------------------------------------------------------------|
B|-------------------------------------------------------------------------------------|
G|--13-13-13-13-----13--13--13-13-13-13-13----15-15-15-15----15--15--13-13-13-15-15-15-|
D|-------------------------------------------------------------------------------------|
A|--11-11-11-11-----11--11--11-11-11-11-11----13-13-13-13----13--13--11-11-11-13-13-13-|
D|-------------------------------------------------------------------------------------|

Post Chorus
e|---------------------------------------------------------------------------|
B|---------------------------------------------------------------------------|
G|-----------------------17-16-17-----------------------------17-17----------|
D|----6-4-0---6-4-0-----------------------6-4-0---6-4-0----------------------|
A|----6-4-0---6-4-0------15-14-15---------6-4-0---6-4-0-------15-15----------|
D|----6-4-0---6-4-0-----------------------6-4-0---6-4-0----------------------|

e|-------------------------------------------------------------|
B|-------------------------------------------------------------|
G|----------------------17------------------------------17-17--|
D|---6-4-0---6-4-0------------------6-4-0---6-4-0--------------|
A|---6-4-0---6-4-0------15----------6-4-0---6-4-0-------15-15--|
D|---6-4-0---6-4-0------------------6-4-0---6-4-0--------------|

e|-----------------------------------------------------------------------|
B|-----------------------------------------------------------------------|
G|----------------------17-----------------------------------------------|
D|---6-4-0---6-4-0------------------6-4-0---6-4-0------6-4-0---6-4-0-----|
A|---6-4-0---6-4-0------15----------6-4-0---6-4-0------6-4-0---6-4-0-----|
D|---6-4-0---6-4-0------------------6-4-0---6-4-0------6-4-0---6-4-0-----|

e|--------------------------------------------------|
B|--------------------------------------------------|
G|--------------------------------------------------|
D|---6-4-0---6-4-0------6-4-0---6-4-0----------15-14|
A|---6-4-0---6-4-0------6-4-0---6-4-0---14-12-------|
D|---6-4-0---6-4-0------6-4-0---6-4-0---------------|

Pre verse

e|---------------------------------------------------------------------------|
B|---------------------------------------------------------------------------|
G|----------------------13-13-13--15-15-15--16-16-16--15-13------------------|
D|---------8--9--8-6---------------------------------------------------------|
A|-6--7-9---------------11-11-11--13-13-13--14-14-14--13-11------------------|
E|---------------------------------------------------------------------------|

Verse as before
e|-------------------------------------|
B|-------------------------------------|
G|--16-15-16---18-20-18--16-15-16------|
D|-------------------------------------|
A|--14-13-14---16-18-16--14-13-14------|
D|-------------------------------------|x2

PM
e|---------------------------------------------------------------------|
B|---------------------------------------------------------------------|
G|---------------------------------------------------------------------|
D|--0-0-0-0-0-0--0-00-00-0-0---4-4-4-4-44-4-4--4-44-44-44--4-4---------|
A|--0-0-0-0-0-0--0-00-00-0-0---4-4-4-4-44-4-4--4-44-44-44--4-4---------|
D|--0-0-0-0-0-0--0-00-00-0-0---4-4-4-4-44-4-4--4-44-44-44--4-4---------|
    . . . . . .  . .. .. . .

Pre-chorus
e|-------------------------------------------------------------------|
B|-------------------------------------------------------------------|
G|----------------------------------------------13-13-13---15-15-15--|
D|--9-9-9--9-9-9--11-11-11--9-9-9------------------------------------|
A|--9-9-9--9-9-9--11-11-11--9-9-9---------------11-11-11---13-13-13--|
D|--9-9-9--9-9-9--11-11-11--9-9-9------------------------------------|

Bridge x2
e|--------------------------------------------------------------------|
B|--------------------------------------------------------------------|
G|--------------------------------------------------------------------|
D|---13---------13--------------13----------13------------------------|
A|------14---------14----14--------14----------14---14----------------|
D|---------13---------13--------------13----------13------------------|

e|-----------------------------------------------------------|
B|-----------------------------------------------------------|
G|-----------------------------------------------------------|
D|---13--------13---------------13----------13h14p13---------|
A|------14--------14---14----------14---------------14---14--|
D|---------13--------13---------------13---------------13----|

Chorus x3
e|----------------------------------------------------------------------------------|
B|----------------------------------------------------------------------------------|
G|---16-16-16-16----16--16--16-16-16-16-16----15-15-15-15----15--15--15-15-15-15-15-|
D|----------------------------------------------------------------------------------|
A|---14-14-14-14----14--14--14-14-14-14-14----13-13-13-13----13--13--13-13-13-13-13-|
D|----------------------------------------------------------------------------------|

e|-------------------------------------------------------------------------------------|
B|-------------------------------------------------------------------------------------|
G|--13-13-13-13-----13--13--13-13-13-13-13----15-15-15-15----15--15--13-13-13-15-15-15-|
D|-------------------------------------------------------------------------------------|
A|--11-11-11-11-----11--11--11-11-11-11-11----13-13-13-13----13--13--11-11-11-13-13-13-|
D|-------------------------------------------------------------------------------------|

Outro
e|-----------------------------------|
B|-----------------------------------|
G|--16-15-16---18-20-18--16-15-------|
D|-----------------------------------|
A|--14-13-14---16-18-16--14-13-------|
D|-----------------------------------|x3

e|-----------------------------------|
B|-----------------------------------|
G|--16-16-15----13-13-13-15-15-15----|
D|-----------------------------------|
A|--14-14-------11-11-11-13-13-13----|
D|-----------------------------------|

| /  slide up
| \  slide down
| h  hammer-on
| p  pull-off
| ~  vibrato
| +  harmonic
| x  Mute note

Cheers enjoy and if its wrong feel free to correct me!
===============================================================================
Suggest correction
Give kudos to tab author, rate the tab!
1 2 3 4 5
comments
print report bad tab
1 comment total.
0 reply
moshing madman 10 wrote on August 28 2009, 05:43 am

very good ive tried the intro and it sounds spot on aint tried the rest as im in the wrong tuning and cant be bothered to de tune so ill try it later XD

guest
You may want to rate the tab now too:
select rating
Please do not post tabs as comments. Select "correction" instead!