Oops, an error
Loading. Please wait.

Komplett Im Arsch tab

version 1
version 1

Whole song

Interactive

10,271 views 33 this week
1 commentread comment
1 2 3 4 5
x 5
add to favorites
×
Save as Personal and add changes to this tab that will be seen only by you. Learn more ›
×
You can save this tab as Personal to edit and correct it or add notes. All changes will be seen only by you. Learn more »
launch autoscroll
font size
0
reset
how to read this tab
guitar tuner
edit
Autoscroll
slow
fast
+/-
esc
set tempo
stop
Author
Unregistered
Feine Sahne Fischfilet – Komplett im Arsch



Intro/Verse/Refrain:
e:|--3----6----6----5---------------------|
B:|--3----8----6----7---------------------|
G:|--3----8----7----7---------------------|
D:|--5----8----8----7---------------------|
A:|--5----6----8----5---------------------|
E:|--3---------6--------------------------|
   
Bridge:
e:|-------------------------------------------------------|
B:|-------------------------------------------------------|
G:|-------------8-8-8-8-8-------------7-8-----------------|
D:|--5-5-5-5-5--8-8-8-8-8--8-8-8-8-8--7-8-----------------|
A:|--5-5-5-5-5--6-6-6-6-6--8-8-8-8-8--5-6-----------------|
E:|--3-3-3-3-3-------------6-6-6-6-6----------------------|
         x x x      x x x      x x x       

e:|-------------------------------------------------------|
B:|-------------------------------------------------------|
G:|-------------8-8-8-8-8---------------------------------|
D:|--5-5-5-5-5--8-8-8-8-8--8-8-8-8-8--7-7-7-7-------------|
A:|--5-5-5-5-5--6-6-6-6-6--8-8-8-8-8--7-7-7-7-------------|
E:|--3-3-3-3-3-------------6-6-6-6-6--5-5-5-5-------------|
         x x x      x x x      

e:|-------------------------------------------------------|
B:|-------------------------------------------------------|
G:|-------------8-8-8-8-8-------------7-8-----------------|
D:|--5-5-5-5-5--8-8-8-8-8--8-8-8-8-8--7-8-----------------|
A:|--5-5-5-5-5--6-6-6-6-6--8-8-8-8-8--5-6-----------------|
E:|--3-3-3-3-3-------------6-6-6-6-6----------------------|
         x x x      x x x      x x x    


e:|-------------------------------------------------------|
B:|-------------------------------------------------------|
G:|-------------8-8-8-8-8--7-7-7-7-7-7--5-5-5-5-5-5-------|
D:|--5-5-5-5-5--8-8-8-8-8--7-7-7-7-7-7--5-5-5-5-5-5--5----|
A:|--5-5-5-5-5--6-6-6-6-6--5-5-5-5-5-5--3-3-3-3-3-3--5----|
E:|--3-3-3-3-3---------------------------------------3----|
         x x x      x x x    

Viel Spaß! ;-)

            
            
Suggest correction
Creating personal tab
Creating personal tab
You can edit any tab online and save it as your Personal.

You can edit, replace or remove any tab part or add personal notes – all changes will be seen only by you.

Personal tabs can be accessed anytime from any device, even offline.
Learn more »
comments
print report bad tab
1 comment total.
0 reply
Venim1991 10 Feb 18, 2015 12:42 AM

guitar pro tab wäre perfekt

guest
Wanna post a correction for this tab? Suggest correction