Oops, an error
Loading. Please wait.

Mit Dir chords

8,470 views 33 this week
no commentswrite comment
1 2 3 4 5
x 8
add to favorites
×
Save as Personal and add changes to this tab that will be seen only by you. Learn more ›
×
You can save this tab as Personal to edit and correct it or add notes. All changes will be seen only by you. Learn more »
launch autoscroll
font size
0
reset
transpose
0
reset
simplify chords
display chords
guitar tuner
edit
Autoscroll
slow
fast
+/-
esc
set tempo
stop
Author
Difficulty
intermediate
Strumming
There is no strumming pattern for this song yet. and get +5 IQ
Feine Sahne Fischfilet  Mit Dir (akustik)
----------------------------------------
(die normale, nicht-akustik-Version besteht aus der gleichen Akkordfolge, 
nur werden die Akkorde durch Powerchords ersetzt: C#5 A5 B5 E5 Eb5)

[Akkorde]
  C#m     A       B        E       (Ebm)
e|-4------5-------7--------7--------6-------|
B|-5------5-------7--------9--------7-------|
G|-6------6-------8--------9--------8-------|
D|-6------7-------9--------9--------8-------|
A|-4------7-------9--------7--------6-------|
E|-x------5-------7--------x--------x-------|

[Strophe] C#m A B E
[Refrain] C#m A B E Ebm

[Intro] C#m A B E Ebm  (Ebm folgt schnell auf E)

[Strophe 1]
C#m      A      B E               C#m
Manchmal bin ich, einfach nur gut drauf
         A      B E
Manchmal bin ich, selten zu haus.
C#m      A      B      E            C#m
Manchmal bin ich, auch gerne alleine
     A                   B         E       C#m
Aber eigentlich will ich grade nur bei dir sein

[Refrain]
C#m      A               B
Komm wir reichen uns die Hand 
        E      Ebm   C#m               A            B              E       Ebm C#m
und wir werden schon sehen, dass diese zeitlosen Mo-mente wirklich niemals ver-gehen, 
           A          B                E     Ebm C#m               A
es ist der eine Augen-blick dieses ver-traute Ge-fühl, dass unsere Träume 
       B    E     Ebm     C#m
irgend-wann in Er-füllung gehen

[Strophe 2]
       A    B   E                C#m
Und du sagst es kotzt dich alles an
       A    B   B                       C#m
Und du sagst du bleibst hier nicht mehr lang
       A    B     E              C#m
Und du sagst was andres kenn ich kaum
      A          B     E          C#m    
Lass uns zusammen ein Luftschloss bauen

[Refrain]
C#m      A               B
Komm wir reichen uns die Hand 
        E      Ebm   C#m               A            B              E       Ebm C#m
und wir werden schon sehen, dass diese zeitlosen Mo-mente wirklich niemals ver-gehen, 
           A          B                E     Ebm C#m               A
es ist der eine Augen-blick dieses ver-traute Ge-fühl, dass unsere Träume 
       B    E     Ebm     C#m
irgend-wann in Er-füllung gehen

C#m      A               B      E  Ebm
Komm wir reichen uns die Hand
C#m      A               B      E  Ebm
Komm wir reichen uns die Hand

[Solo]
e|------------------------------------------------------|
B|------------------------------------------------------|
G|----9----9s11-9--11-9-11-9--9-11s13-11-9--------------|
D|-11---11----------------------------------------------|
A|------------------------------------------------------|
E|------------------------------------------------------|

e|---------------------------------------------|
B|---------------------------------------------|
G|----9----9s11-9--11s13-11---9-11-9-----------|
D|-11---11---------------------------11-9------|
A|-----------------------------------------11--|
E|---------------------------------------------|

e|----------------------------------|--------------------------------|
B|----------------------------------|--------------------------------|
G|-----9----9----9----9s11-9-11-9---|-11-9-11-9-11-9-11s13--11--9-11-|
D|-11----11---11---11---------------|--------------------------------|
A|----------------------------------|--------------------------------|
E|----------------------------------|--------------------------------|

e|----------------------------------|--------9--12--14--12--9-----|
B|----------------------------------|-9--12-----------------------|
G|-----9----9----9----9s11-9-11-9---|-----------------------------|
D|-11----11---11---11---------------|-----------------------------|
A|----------------------------------|-----------------------------|
E|----------------------------------|-----------------------------|

[Refrain]
C#m      A               B
Komm wir reichen uns die Hand 
        E      Ebm   C#m               A            B              E       Ebm C#m
und wir werden schon sehen, dass diese zeitlosen Mo-mente wirklich niemals ver-gehen, 
           A          B                E     Ebm C#m               A
es ist der eine Augen-blick dieses ver-traute Ge-fühl, dass unsere Träume 
       B    E     Ebm     C#m
irgend-wann in Er-füllung gehen

C#m
Komm wir reichen uns die Hand   woooohooho
C#m
Komm wir reichen uns die Hand   woooohooho

C#m      A               B      E  Ebm
Komm wir reichen uns die Hand   woooohooho
C#m      A               B      E  Ebm
Komm wir reichen uns die Hand   woooohooho

C#m      A               B      E  Ebm
Komm wir reichen uns die Hand
C#m      A               B      E  Ebm     C#m
Komm wir reichen uns die Hand

            
            
Suggest correction
Creating personal tab
Creating personal tab
You can edit any tab online and save it as your Personal.

You can edit, replace or remove any tab part or add personal notes – all changes will be seen only by you.

Personal tabs can be accessed anytime from any device, even offline.
Learn more »
comments
print report bad tab
guest
You may want to rate the tab now too:
select rating
Wanna post a correction for this tab? Suggest correction