Oops, an error
Loading. Please wait.

1 2 3 4 Tab

version 3
version 3

Whole song

Interactive

27,193 views 1 this week
3 commentsread comments
1 2 3 4 5
accurate
x 3
add to favorites
launch autoscroll
font size
0
reset
how to read this tab
guitar tuner
Autoscroll
slow
fast
+/-
esc
set tempo
stop
Help us to improve Ultimate-Guitar.com Take our survey!
×
Difficulty
intermediate
My second Feist tab, woot! I played some versions on here and they didnt feel right to 
So this is how I play it:

s = strum
. = continued
p = pick
\ = slide

Intro:

E|-----------------------------------------------|
B|-----------------------------------------------|
G|-----------------------------------------------|
D|--7--7--7--7--4--4-----------------------------|
A|--5-5---4-4---2-2---5--5-----------------------|
E|--------------------3-3------------------------|
    s p   s p   s p   s p

When Leslie stars to sing "One, two, three, four, tell me..." I switch to this:

E|----------------------------------------------------------|
B|----------------------------------------------------------|
G|-7-7--7-7--4-4-------7-7--7-7--4-4------------------------|
D|-7-7--7-7--4-4--5-5--7-7--7-7--4-4--5-5-------------------|
A|-5-5--4-4--2-2--5-5--5-5--4-4--2-2--5-5-------------------|
E|----------------3-3-----------------3-5-------------------|

"Old teenage hopes are alive..."

E|--------------------------------------------------------|
B|--------------------------------------------------------|
G|--7-7/9-9-----------------------------------------------|
D|--7-7/9-9--9-9--5-5-------------------------------------|
A|--5-5/7-7--9-9--5-5-x2----------------------------------|
E|-----------7-7--3-3-------------------------------------|

"Ohhhh uh-ohhh, you're changing..."

E|--5--3-----------------------------|
B|--5--3-----------------------------|
G|--6--4-----------------------------| Listen to song for strumming pattern.
D|--7--5--x2-------------------------|
A|--7--5-----------------------------|
E|--5--3-----------------------------|
    s  s

"Sweetheart, bitter heart, now I can't..."

E|----------------------------------------------------------|
B|----------------------------------------------------------|
G|-7-7--7-7--4-4-------7-7--7-7--4-4------------------------|
D|-7-7--7-7--4-4--5-5--7-7--7-7--4-4--5-5-------------------|
A|-5-5--4-4--2-2--5-5--5-5--4-4--2-2--5-5-------------------|
E|----------------3-3-----------------3-5-------------------|

"Those teenage hopes who have tears..."

E|--------------------------------------------------------|
B|--------------------------------------------------------|
G|--7-7/9-9-----------------------------------------------|
D|--7-7/9-9--9-9--5-5-------------------------------------|
A|--5-5/7-7--9-9--5-5-x2----------------------------------|
E|-----------7-7--3-3-------------------------------------|

"Ohhhh uh-ohhh, you're changing..."

E|--5--3-----------------------------|
B|--5--3-----------------------------|
G|--6--4-----------------------------| Listen to song for strumming pattern.
D|--7--5--x2-------------------------|
A|--7--5-----------------------------|
E|--5--3-----------------------------|
    s  s

"One, two, three, four, five, six, nine or ten..."

E|-----------------------------------------------|
B|-----------------------------------------------|
G|-----------------------------------------------|
D|--7--7--7--7--4--4-----------------------------|
A|--5-5---4-4---2-2---5--5-----------------------|
E|--------------------3-3------------------------|
    s p   s p   s p   s p

Trumpet part:

E|--------------------------------------------|
B|--------------------------------------------|
G|--7-7/7\6--4-4/6\4-2------------------------|
D|--x-x/x\x--x-x/x\x-x------------------------|
A|--5-5/9\4--2-2/4\2-0------------------------|
E|--------------------------------------------|

Then there's a pause, then play the part again when the trumpet comes it.

"Ohhhh uh-ohhh, you're changing..."

E|--5--3--5--3--5--3.-----------------------|
B|--5--3--5--3--5--3.-----------------------|
G|--6--4--6--4--6--4.-----------------------| Listen to song for strumming pattern.
D|--7--5--7--5--7--5.-----------------------|
A|--7--5--7--5--7--5.-----------------------|
E|--5--3--5--3--5--3.-----------------------|
    s  s  s  s  s  s

Pause durring piano solo.

"Bah duh, bah da dah...with trumpet"

E|----------------------------------------|
B|----------------------------------------|
G|--11\9--16\14\11--9/11\9-7\4/7----------|
D|--x-\x--x-\x-\x---x/x\x--x\x/x----------|
A|--9-\7--14\12\9---7/9\7--5\2/5----------|
E|----------------------------------------|

Then end with Intro:
Gradually play slow then end on G (3-5-5), let it ring.

E|-----------------------------------------------|
B|-----------------------------------------------|
G|-----------------------------------------------|
D|--7--7--7--7--4--4-----------------------------|
A|--5-5---4-4---2-2---5--5-----------------------|
E|--------------------3-3------------------------|
    s p   s p   s p   s p


Tabbed by Megan Rose of Lively Ontario, Canada ©

Please leave some feed back, and any questions to my email.
     meg-os@hotmail.com
Suggest correction
Give kudos to tab author, rate the tab!
1 2 3 4 5
comments
print report bad tab
3 comments total.
-1 reply
Martunes 258 wrote on June 4 2008, 12:16 pm

this song had a drop D tuning - Check out vers 2 here for a mostly correct tab

+1 reply
cflat 279 wrote on June 16 2008, 04:28 am

I like this version better than version 2. In fact, version 2 is wrong on the third power chord.

+1 reply
Megan_26 30 wrote on July 8 2008, 04:26 pm

"Martunes"- I did check out other version on here...and they were awful. So I made my own, cheers.

guest
You may want to rate the tab now too:
select rating
Wanna post a correction for this tab? Suggest correction