Oops, an error
Loading. Please wait.

Caught A Long Wind Chords

15,555 views 24 this week
2 commentsread comments
1 2 3 4 5
excellent!
x 9
add to favorites
launch autoscroll
font size
0
reset
transpose
0
reset
display chords
guitar tuner
Tab Pro tools
  • play this tab
  • loop segment
  • change instrument
  • show fretboard
  • metronome
×
Best way to learn
"Caught A Long Wind"
Autoscroll
slow
fast
+/-
esc
set tempo
stop
Contributor
intro:
Dm... (playing notes)
Bb, Gm, Dm, F ...



Bb  
     Gm        Dm F Bb    
    Little bird  
          Gm        Dm F Bb  
have you got a key?
   Gm          Dm F Bb
Unlock the lock
   Gm        Dm F Bb  
inside of me
                F   Gm
Where will you go?
                 C Am Bb
Keep yourself afloat
 Gm         Dm F Bb
Feeling old 
   Gm           Dm F Bb
until the wings 
   Gm    Dm F Bb
unfolded
             Gm       Dm F Bb
Caught me a long wind
                  F Gm 
Where will we go?
                  C Am
Keep ourselves afloat


Bb, Gm, Dm, F  6x


                     Dm
I caught a long wind
             Gm  Bb Gm Dm
A long life wind
           F           Bb Gm
I got to know the sky
        Dm            F     
But it didn't know me
        Bb      Gm   Dm
Got to see the light
             F             Bb Gm
And land on top of the sea
            Dm           F   Bb Gm
And be the bird, be the key
             Dm      F    Bb Gm
And now the current tells
          Dm       F    Bb Gm
What the wave withheld
              Dm         F Bb Gm         
And then the lightning say
          Dm          F Bb  
Oh where light will lay
                F   Gm
Where will you go?
                C Am
Keep yourself afloat


Bb, Gm, Dm, F ...


                     Dm
I caught a long wind
              Gm
A long life wind
              Am
Like a swallow
           Dm
A night owl
                   Gm
A little chickadee
           Am
Sad sparrow
                 Dm
Good morning bird
                Gm
Good nightingale
                    Am
I took a deep breath
                       Dm
And caught a long wind
comments
print report bad tab
2 comments total.
0 reply
indieguitartabs wrote on March 26 2014, 12:34 am

Here is the intro:

Intro:
e|-------------------------------------|-------------------------------------||
B|-------------------------------------|-------------------------------------||
G|--0h-2--0-----0----------------------|--2-2-2-0-----0----------------------||
D|-----------3-----3--0-----0--3--0-0--|-----------3-----3--0--3--0-----0----|| x2
A|-----------------------3-------------|-----------------------------3-------||
E|-------------------------------------|-------------------------------------||

e|--3--5--3--1--3--1-----1------------------------------------------------------||
B|--------------------3-----3--1--3--1-----1------------------------------------||
G|--------------------------------------2-----2--0--2--0-----0------------------||
D|--------------------------------------------------------3-----3--0--3--0----0-|| x2
A|--------------------------------------------------------------------------3---||
E|------------------------------------------------------------------------------||

0 reply
indieguitartabs wrote on March 26 2014, 12:36 am

Here is the intro:

Intro:
e|-------------------------------------|-------------------------------------||
B|-------------------------------------|-------------------------------------||
G|--0h-2--0-----0----------------------|--2-2-2-0-----0----------------------||
D|-----------3-----3--0-----0--3--0-0--|-----------3-----3--0--3--0-----0----|| x2
A|-----------------------3-------------|-----------------------------3-------||
E|-------------------------------------|-------------------------------------||

e|--3--5--3--1--3--1-----1------------------------------------------------------||
B|--------------------3-----3--1--3--1-----1------------------------------------||
G|--------------------------------------2-----2--0--2--0-----0------------------||
D|--------------------------------------------------------3-----3--0--3--0----0-|| x2
A|--------------------------------------------------------------------------3---||
E|------------------------------------------------------------------------------||

I want to post or [tab]
guest
You may want to rate the tab now too:
select rating
Please do not post tabs as comments. Select "correction" instead!