Oops, an error
Loading. Please wait.

How My Heart Behaves Bass Tab

5,063 views 12 this week
1 commentread comment
1 2 3 4 5
please rate
add to favorites
launch autoscroll
font size
0
reset
guitar tuner
Autoscroll
slow
fast
+/-
esc
set tempo
stop
Help us to improve Ultimate-Guitar.com Take our survey!
×
Author
-------------------------------------------------------------------------------
			  How My Heart Behaves - Feist
-------------------------------------------------------------------------------
Tabbed By: Valerie L.
e-mail: v_vengeance6661@yahoo.com

Intro/Verse
G|--------------------------------------------|
D|--------------------------------------------|
A|--------------------------------------------|
E|1~---1~----1~---1~----1~---1~---1~---1~-----|

Chorus
G|--------------------------------------------------|
D|--------------------------------------------------|
A|-3~-----3~--------------------------------5-------|
E|----5~-----5~---1~---3--1~--3--1~--3--1~-----1~---|

repeat the chorus throughout the rest of the song
Suggest correction
Give kudos to tab author, rate the tab!
1 2 3 4 5
comments
print report bad tab
1 comment total.
0 reply
harrytheblurfan 221 wrote on April 1 2015, 03:14 pm

For the intro I think the bass (or at least the bass notes in the piano go something like this

G|--------------------------------------------|
D|-3-2-------------3-2------------------------|
A|-----3-0-------------3-0--------------------|
E|---------1~~~~-----------1~~~~--------------|

guest
You may want to rate the tab now too:
select rating
Please do not post tabs as comments. Select "correction" instead!