Oops, an error
Loading. Please wait.

Limit To Your Love Tab

40,763 views 27 this week
no commentswrite comment
1 2 3 4 5
2 more votes to show rating
add to favorites
launch autoscroll
font size
0
reset
how to read this tab
guitar tuner
Autoscroll
slow
fast
+/-
esc
set tempo
stop
Help us to improve Ultimate-Guitar.com Take our survey!
×
Difficulty
novice
Tuning: standard

[Intro/Verse 1]
(This is played casually over the first verse or just strum the chord
Formations as they are; there are variations throughout the later bits too)
e|---------------------------------------------------------------------|
B|---------------------------------------------------------------------|
G|------------7----5--------7-------------7----------7-----------------|
D|------7-------------------7------7------7-s-5-s-7--7-----------------|
A|---8-----8-----------8--------8-----8--------------------------------|
E|---------------------------------------------------------------------|
               …Clouds part…                     …lesson

[Chorus]
e|-------------------------------------------------------------------|
B|-------------------------------------------------------------------|
G|---5---x---7---------------------------3----3--------5----7--------|
D|---5---x---7---------------------------5----3-h-5----5----7--------|
A|---3---x---5---------------------------5----5--------3----5--------|
E|-------------------------------------------------------------------|
                            …There’s a limit to your love

e|---------------------------------------------------------------|
B|---------------------------------------------------------------|
G|-----7-----------------------------3-(2)--3--------5----7------|
D|-----7-----------------------------5-(3)--3-h-5----5----7------|
A|-----5-----------------------------5-(3)--5--------3----5------|
E|---------------------------------------------------------------|
                 ...Like a waterfall in                 ...slow motion…
                 ...Like a map with no               ...ocean

e|-----------------------------------------------|
B|-----------------------------------------------|
G|--5----------------2----------------0----------|
D|--5----------------3----------------3----------|
A|--3----------------3----------------3----------|
E|-----------------------------------------------|
    …your love...             ...your love…        ...your love….

[Bridge]
e|-------------------------------|
B|-------------------------------|
G|--2----------------------3-----|
D|--3----------------------3-----|
A|--3----------------------1-----|
E|-------------------------------|

         .....There’s a limit to your care
         .....So carelessly there


************************************

| x    Dead note
| h    Hammer-on
| (n)  Ghost note

************************************
Suggest correction
Give kudos to tab author, rate the tab!
1 2 3 4 5
comments
print report bad tab
guest
You may want to rate the tab now too:
select rating
Wanna post a correction for this tab? Suggest correction