Oops, an error
Loading. Please wait.

Mushaboom Chords

version 1
version 1

Whole song

Interactive

89,776 views 18 this week
5 commentsread comments
1 2 3 4 5
worth learning
x 9
add to favorites
launch autoscroll
font size
0
reset
transpose
0
reset
simplify chords
display chords
guitar tuner
Autoscroll
slow
fast
+/-
esc
set tempo
stop
Help us to improve Ultimate-Guitar.com Take our survey!
×
Author
Title:  'Mushaboom'
Artist: Feist (listentofeist.com)
Album:  Let It Die
Tabbed by Jorge Díaz (j_diaz_s@yahoo.com)


         E A D G B E

D*     --x-x-0-x-x-x--|
A*     --x-0-x-x-x-x--|
G      --3-2-0-0-3-0--|
A7sus4 --x-0-2-0-3-0--|
Em7    --0-2-2-0-3-0--|


 [ Capo 1st Fret ]


 Intro:

E ---------------------0--|
B -------0-(3b)------0-3--|
G ---------------------2--|
D ---0-4---------0-4------|
A -5-----------5----------|
E ------------------------|


 Verse 1: (0:05)

 D*	 A*	 D*	       A*
Helping the kids out of their coats
     D*	      A*     D*	    A*	  G	    D* A* D* A*
But wait the babies haven't been born   oh-oh-oh
D*	      A*   D*	       A*
Unpacking the bags and setting up 
     D	      A	    D	 A	G	  D* A* D* A*
And planting lilacs and buttercups   oh-oh-oh 


 Bridge 1: (0:26)

Em7
But in the meantime I've got it hard
			A7sus4	   D* A* D* A*
Second floor living without a yard 
Em7
It may be years until the day 
			 A7sus4	    D* A* D* A*
My dreams will match up with my pay 


 Chorus 1: (0:42)

Em7           G
Oh-oh-oh old dirt road  (Mushaboom Mushaboom)
 Em7        G
Knee-ee-ee deep snow  (Mushaboom Mushaboom)
 Em7              G	     
Watching the fire as we grow  (Mushaboom Mushaboom)
Em7      G
Oh-oh-oh old

E --------------|
B -0-2-3-5-5^7--|
G --------------|
D --------------|
A --------------|
E --------------|

   D* A*   D* A*   D* A*  D* A*   G        -  -
E ----------------------------------------------|
B -------------------------------------------7b-|
G -------------------------------7-4---4-2------|
D -2h4-4---2---4----2h4-4--2-0------------------| (x2)
A ----------------------------------------------|
E ----------------------------------------------|


 Verse 2: (1:23)

D*	 A*    D*       A*
I got a man to stick it out 
     D*	    A*        D*      A*  G	  D* A* D* A*
And make a home from a rented house   oh-oh-oh
	   D*          A*     D*     A*
And we'll collect the moments one by one 
    D*          A*      D*       A* G	    D* A* D* A*
I guess that's how the future's done   oh-oh-oh


 Bridge 2: (1:45)

Em7
How many acres how much light 
			A7sus4	     D* A* D* A*
Tucked in the woods and out of sight 
Em7
Talk to the neighbours and tip my cap 
		  A7sus4	   D* A* D* D* D* D* 
On a little road barely on the map 


 Chorus 2: (2:01)

Em7           G
Oh-oh-oh old dirt road  (Mushaboom Mushaboom)
 Em7        G
Knee-ee-ee deep snow  (Mushaboom Mushaboom)
 Em7              G	     
Watching the fire as we grow  (Mushaboom Mushaboom)
Em7      G
Oh-oh-oh old  (Mushaboom Mushaboom)
Em7           G
Oh-oh-oh old dirt road
Em7        G  
Ra-ah-ah rambling rose  (Mushaboom Mushaboom)
 Em7              G	     
Watching the fire as we grow  (Mushaboom Mushaboom)
Em7       G
we-eh-eh well I'm sold

   G	G    -
E --------------|
B -0-2-3-5-5^7--|
G --------------|
D --------------|
A --------------|
E --------------|
      oh-ooooooh

E --2--2-------2-|        E --2--2-------2-0---|
B -3--3--3---3---|        B -3--3--3---3-----3-|
G ---------2-----| (x11)  G ---------2---------|
D ---------------|        D -------------------|
A ---------------|        A -------------------|
E ---------------|        E -------------------|


E ----------------------|
B ----------------------|
G ----------------------|
D -0-2-4-0h2-4--0-2-0-0-| [ Repeat this to fade ]
A ----------------------|
E ----------------------|
Suggest correction
comments
print report bad tab
5 comments total. Showing first comments.
0 reply
invisibility 10 wrote on September 11 2006, 04:20 pm

wrong

0 reply
The_Bard 10 wrote on November 21 2006, 04:59 am

I have a question, if you play a fifth string open with a capo on first doesn't that make it a D# or a Eb, not a D natural. Same goes for all the chords, I mean the chord shapes are right, but in relation to the capo they make no sense.

0 reply
Littlboyinspain 10 wrote on February 10 2007, 05:52 pm

I believe that the last part goes as follows (tabbed without a capo)

e---3--3------3
B-6--6--4------
G---------5-3--

And then the last time rather than ending on the high G end on the Eb.

guest
You may want to rate the tab now too:
select rating
Wanna post a correction for this tab? Suggest correction