Oops, an error
Loading. Please wait.

Mushaboom tab

version 2
version 2

Whole song

Interactive

by Feist
409 views 12 this week
no commentswrite comment
1 2 3 4 5
2 more votes to show rating
add to favorites
×
Save as Personal and add changes to this tab that will be seen only by you. Learn more ›
×
You can save this tab as Personal to edit and correct it or add notes. All changes will be seen only by you. Learn more »
launch autoscroll
font size
0
reset
how to read this tab
guitar tuner
edit
Autoscroll
slow
fast
+/-
esc
set tempo
stop
-------------------------------------------------------------------------------
                             Mushaboom - Feist
-------------------------------------------------------------------------------

Tabbed by: Sooz
Email: SoozMuze@gmail.com

Tuning: DADGBe - and capo 1st fret 
Time Sig: changes between 4/4 and 3/4

The tab is to be played with the lyrics, I placed it before the lyric to make it easier to 

read. 


STRUCTURE with chords:


INTRO: 4/4

     x     x       Bm  \     x     x Cmaj7 Esus E7
e||-----------------------|-----------------(0)3---||
B||-----------------3--3--|-------------5----0-2---||
G||-------------4---4--4--|-------------4----2-0---||
D||---0--0--4-------4--4--|---0--0--4---5----2-2---||
A||---2----(5)-----(2)----|---2----(5)-------2-0---||
D||--(0)------------------|--(0)-------------------||



VERSE: 4/4

        D                          D
        .     .     .     .        .     .     .     .
e||-----2-----2-----2-----2--|-----2-----2-----2-----2--|
B||-----3-----3-----3-----3--|-----3-----3-----3-----3--|
G|*-----2-----2-----2-----2--|-----2-----2-----2-----2--|
D|*--0-----------0-----------|--0-----------0-----------|
A||--------0-----------0-----|--------0-----------0-----|
D||--0-----------0-----------|--0-----------0-----------|

    G                                D
           .  .          .  .        .     .     .     .
e|--3--3---3--3---3--3---3--3--|-----2-----2-----2-----2--||
B|--0--0---0--0---0--0---0--0--|-----3-----3-----3-----3--||
G|--0--0---0--0---0--0---0--0--|-----2-----2-----2-----2--*|
D|--0--0---0--0---0--0---0--0--|--0-----------0-----------*|
A|--2--2---2--2---2--2---2--2--|--------0-----------0-----||
D|-----------------------------|--0-----------0-----------|| repeat x1

D
Helping the kids out of their coats 
                                    G   D
But wait the babies haven't been bo-rn  ohohoh
D
Unpacking the bags and setting up       
                                 G      D
And planting lilacs and buttercu-ps     ohohoh



PRE-CHORUS: 4/4

    Em                                    A7                D
                                                            .     .     .     .
e||--0---0-0---0-0--0--0-0--|--0---0-0---0-3--3---3-3--|-----2-----2-----2-----2--||
B||--0---0-0---0-0--0--0-0--|--0---0-0---0-2--2---2-2--|-----3-----3-----3-----3--||
G|*--0-----0-----0--0----0--|--0-----0-----2--2-----2--|-----2-----2-----2-----2--*|
D|*--2-----2-----2--2----2--|--2-----2-----2--2-----2--|--0-----------0-----------*|
A||--2-----2-----2--2----2--|--2-----2-----0--0-----0--|--------0-----------0-----||
D||-------------------------|--------------------------|--0-----------0-----------|| repeat x1

Em
But in the meantime I've got it hard 
Em                       A7         D
Second floor living with-out a yard 
Em              
It may be years until the day 
Em                      A7      D
My dreams will match up with my pay 



CHORUS: 3/4

     Em   A    GMaj7
                 tie
e||--0----0----2___|___2------||
B||--0----2----3___|___3------||
G|*--0----2----4___|___4------*|
D|*--2----2----5___|___5------*|
A||--2----0--------|----------||
D||----------------|----------|| play 4 times


Em A GMaj7
O-l-d      dirt road 
Em A GMaj7
Knee       deep snow 
Em       A        GMaj7
Watching the fire as we grow  
Em A GMaj7 
O-l-d


4/4
    Em   A   GMaj7 A7

e|--0----0----2----3----||
B|--0----2----3----2----||
G|--0----2----4----2----||
D|--2----2----5----2----||
A|--2----0---------0----||    
D|----------------------|| 



SOLO: 4/4

 ||  D     /   /    /  |  D      /     /     /    | G / / /  | D   /  /  /    |
e||--------------------|--------------------------|----------|----------------|
B||--------------------|------------------------3-|----------|----------------|
G||--------------------|--------------------------|-4-----4--|-2--------------|
D||--2-----4--------4--|--2-h-4--4--2--2--0--2/4--|----------|----------------|
A||-----0------2--0----|--------------------------|----------|----------------|
D||--0-----------------|--0------------0----------|-5--------|-0--------------|


 |   D     /   /    /  |  D      /     /     /    | G / / /  | D   /  /  /   ||
e|---------------------|--------------------------|----------|---------------||
B|---------------------|------------------------3-|----------|---------------||
G|---------------------|--------------------------|-4-----4--|-2-------------||
D|---2-h-4-4--------4--|--2-h-4--4--2--2--0--2/4--|----------|---------------||
A|---0---0-0-2-2--0-0--|--0---0--0--0--0--0--0-0--|-------5--|---------------||
D|---0-------0-0--0----|--0------------0----------|-5--------|-0-------------||



VERSE: 4/4
        D                          D
        .     .     .     .        .     .     .     .
e||-----2-----2-----2-----2--|-----2-----2-----2-----2--|
B||-----3-----3-----3-----3--|-----3-----3-----3-----3--|
G|*-----2-----2-----2-----2--|-----2-----2-----2-----2--|
D|*--0-----------0-----------|--0-----------0-----------|
A||--------0-----------0-----|--------0-----------0-----|
D||--0-----------0-----------|--0-----------0-----------|

    G                                D
           .  .          .  .        .     .     .     .
e|--3--3---3--3---3--3---3--3--|-----2-----2-----2-----2--||
B|--0--0---0--0---0--0---0--0--|-----3-----3-----3-----3--||
G|--0--0---0--0---0--0---0--0--|-----2-----2-----2-----2--*|
D|--0--0---0--0---0--0---0--0--|--0-----------0-----------*|
A|--2--2---2--2---2--2---2--2--|--------0-----------0-----||
D|-----------------------------|--0-----------0-----------|| repeat x1

D
I got a man to stick it out 
                                G       D
And make a home from a rented ho-use    ohoh
D
And we'll collect the moments one by one 
                                   G    D
I guess that's how the future's do-ne   ohoh


PRE CHORUS: 4/4

    Em                                    A7                D
                                                            .     .     .     .
e||--0---0-0---0-0--0--0-0--|--0---0-0---0-3--3---3-3--|-----2-----2-----2-----2--||
B||--0---0-0---0-0--0--0-0--|--0---0-0---0-2--2---2-2--|-----3-----3-----3-----3--||
G|*--0-----0-----0--0----0--|--0-----0-----2--2-----2--|-----2-----2-----2-----2--*|
D|*--2-----2-----2--2----2--|--2-----2-----2--2-----2--|--0-----------0-----------*|
A||--2-----2-----2--2----2--|--2-----2-----0--0-----0--|--------0-----------0-----||
D||-------------------------|--------------------------|--0-----------0-----------|| repeat x1

Em
How many acres how much light 
Em                        A7       D
Tucked in the woods and out-of sight
Em
Talk to the neighbours and tip my cap 
Em                        A7      D
On a little road barely on the map 


CHORUS: 3/4

     Em   A    GMaj7
                 tie
e||--0----0----2___|___2------||
B||--0----2----3___|___3------||
G|*--0----2----4___|___4------*|
D|*--2----2----5___|___5------*|
A||--2----0--------|----------||
D||----------------|----------|| play 8 times


Em A GMaj7
O-l-d      dirt road 
Em A GMaj7
Knee       deep snow 
Em       A        GMaj7
Watching the fire as we grow  
Em A GMaj7 
O-l-d

Em A GMaj7
O-l-d      dirt road 
Em  A  GMaj7
Raambling  rose 
Em       A        GMaj7
Watching the fire as we grow 
Em   A   GMaj7
Well I'm Sold


OUTRO:

e||---12-14-12--14--------------14--|---12-14-12--14--------------14--|
B||-----------------15--12----------|-----------------15--12----------|
G|*-------------------------14------|-------------------------14------|
D|*---------------------------------|---------------------------------|
A||---------------------------------|---------------------------------|
E||---------------------------------|---------------------------------|
    

e|----12-14-12--14--------------14--|---12-14-12--14-------------14--||
B|------------------15--12----------|-----------------12------15-----||
G|--------------------------14------|---------------------14---------*|
D|----------------------------------|--------------------------------*|
A|----------------------------------|--------------------------------||
E|----------------------------------|--------------------------------||  play 3 times

      
    1  +   2  + 3 +
e||------------------||
B||------------------||
G|*------------------*|
D|*----0h2-5--0-2-5--*|
A||------------------||
E||------------------|| keep repeating and fade out.


_____________________________________________________________________________________________

| . staccato note (short and detatched note)
| ||*--------*|| repeat between the star dots
| / main pulse (beat or strum)
| x no chord
_______________________________________.oO sooz Oo.________________________________________c:

            
            
Suggest correction
Creating personal tab
Creating personal tab
You can edit any tab online and save it as your Personal.

You can edit, replace or remove any tab part or add personal notes – all changes will be seen only by you.

Personal tabs can be accessed anytime from any device, even offline.
Learn more »
Give kudos to tab author, rate the tab!
1 2 3 4 5
comments
print report bad tab
guest
You may want to rate the tab now too:
select rating
Wanna post a correction for this tab? Suggest correction