Oops, an error
Loading. Please wait.

Now At Last chords

version 2
version 2

Whole song

by Feist
325 views 9 this week
no commentswrite comment
1 2 3 4 5
2 more votes to show rating
add to favorites
×
Save as Personal and add changes to this tab that will be seen only by you. Learn more ›
×
You can save this tab as Personal to edit and correct it or add notes. All changes will be seen only by you. Learn more »
launch autoscroll
font size
0
reset
transpose
0
reset
simplify chords
display chords
guitar tuner
edit
Autoscroll
slow
fast
+/-
esc
set tempo
stop
Author
Difficulty
Strumming
There is no strumming pattern for this song yet. and get +5 IQ
Song: Now At Last
Artist: Feist
Album: Let It Die (2004)


Standard Tuning


    Bbmaj7  Gm7    Cm7     F7    Dm7    C#m7    Bb  F7sus2  Cm9

e|---------------------------------------------(6)----(8)-----------|
A|----6------3------8------1------10-----9------6------8-----3------|
D|----7------3------8------2------10-----9------7------8-----3------|
G|----7------3------8------1------10-----9------8------10----1------|
B|---------------------------------------------(8)-----8-----3------|
E|----6------3------8------1------10-----9------6-------------------|


Alternate Voicings

    Bbmaj7   Gm7    Dm7     F7

e|---(1)----(10)----(5)----(8)--------------------------------------|
A|----3------11------6------10--------------------------------------|
D|----2------10------5------8---------------------------------------|
G|----3------12------7------10--------------------------------------|
B|----1------10------5------8---------------------------------------|
E|------------------------------------------------------------------|


*This is a simplified version to provide a basic structure of the song*
*You can add more colour and movement with different voicings of the above chords*





[Intro]

Bbmaj7 Gm7  Cm7  F7


[Verse]

       Bbmaj7   Gm7
Now at last I know
Cm7      F7        Dm7     Gm7   Dm7 C#m7 Cm7 *
  What a fool I've been
         F7        Bmaj7 Gm7
For I've lost the last love
Cm7   F7         Bbmaj7 Bb D#maj7 F7   
  I    shall ever win

           Bbmaj7    Gm7
And now at last I see
Cm7       F7        Dm7   Gm7   Dm7 C#m7 Cm7 *
  How my heart was blind
       F7   Bbmaj7  Gm7
To the joys before me
Cm7      F7     Bbmaj7
  That I left behind


[Chorus]

          F7
When the wind was fresh
        Bbmaj7
On the hills
        F7sus2                Bmaj7
And the stars were new in the sky
       F7sus2                Dm7
And a lark was heard in the still
          Gm7  Cm9
Where was I ?
          Cm7  F7
Where was I ?


[Verse]

         Bbmaj7      Gm7
When the spring is cold
Cm7         F7     Dm7     Gm7   Dm7 C#m7 Cm7 *
  Where do robins go
         F7         Bmaj7 Gm7        
What makes winters lonely
Cm7      F7      Bbmaj7
  Now at last I know


[Chorus]

          F7
When the wind was fresh
        Bbmaj7
On the hills
        F7sus2                Bmaj7
And the stars were new in the sky
       F7sus2                Dm7
And a lark was heard in the still
          Gm7  Cm9
Where was I ?
          Cm7  F7
Where was I ?


[Final Verse]

         Bbmaj7      Gm7
When the spring is cold
Cm7         F7     Dm7     Gm7   Dm7 C#m7 Cm7 *
  Where do robins go
         F7         Bmaj7 Gm7        
What makes winters lonely
Cm7      F7      Bbmaj7
  Now at last I know





* Dm7 C#m7 Cm7 should be walked down quickly, ending on the Cm7
Suggest correction
Creating personal tab
Creating personal tab
You can edit any tab online and save it as your Personal.

You can edit, replace or remove any tab part or add personal notes – all changes will be seen only by you.

Personal tabs can be accessed anytime from any device, even offline.
Learn more »
Give kudos to tab author, rate the tab!
1 2 3 4 5
comments
print report bad tab
guest
You may want to rate the tab now too:
select rating
Wanna post a correction for this tab? Suggest correction