Oops, an error
Loading. Please wait.

Pleasure tab

by Feist
1,924 views 108 this week
no commentswrite comment
1 2 3 4 5
x 4
add to favorites
×
Save as Personal and add changes to this tab that will be seen only by you. Learn more ›
×
You can save this tab as Personal to edit and correct it or add notes. All changes will be seen only by you. Learn more »
launch autoscroll
font size
0
reset
how to read this tab
guitar tuner
edit
Autoscroll
slow
fast
+/-
esc
set tempo
stop
Drop-D


[Intro]

(Palm-mute)
e|----------------------------------------------------------------------------|
B|----------------------------------------------------------------------------|
G|----------------------------------------------------------------------------|
D|--5--5----5--5-4--4----------------------------------------------------0-2--| x2
A|---------------------5--5----5--5---5/7--5--5---7/9-7-5-7--7--2----0-2------|
D|----------------------------------------------------------------------------|


[Verse 1]

e|----------------------------------------------------------------------------|
B|----------------------------------------------------------------------------|
G|----------------------------------------------------------------------------|
D|--5--5----5--5-4--4----------------------------------------------------0-2--| x4
A|---------------------5--5----5--5---5/7--5--5---7/9-7-5-7--7--2----0-2------|
D|----------------------------------------------------------------------------|

Get what I want, and still it's a mysterious thing that I want
So when I get it, I make sense of a mysterious thing
'Cause I've taken flight on such a serious wing
I, and you are the same and either fiction or dreaming


[Pre-Chorus 1]

e|---------------------------------------------------------------------------|
B|---------------------------------------------------------------------------|
G|---------------------------------------------------------------------------|
D|---------------------------------------------------------------------------|
A|----5--5---5--5--5--7--7---7--7---7--7---7---5--5---5--5---5--5---5---5----|
D|---------------------------------------------------------------------------|
   We know enough to admit, we know enough to admit, we know enough to admit


[Chorus 1]

e|---------------------------------------------------------------------------|
B|---------------------------------------------------------------------------|
G|---------------------------------------------------------------------------|
D|---------------------------------------------------------------------------|
A|--/7------5---------5---0----3---------/7------5---------5---0----3--------|
D|--/7------5---------5---0----3---------/7------5---------5---0----3--------|
    It's my pleasure, and your pleasure, it's my pleasure, and your pleasure


e|-----------------|-----------------|-----------------|--------------------------|
B|-----------------|-----------------|-----------------|--------------------------|
G|-----------------|-----------------|-----------------|--------------------------|
D|--5--0--3b----0--|--7--0--5b----0--|--5--0--3b----0--|--7--0--5---/15-15-15-15--| x2
A|--5--0--3b----0--|--7--0--5b----0--|--5--0--3b----0--|--7--0--5---/15-15-15-15--|
D|--5--0--3b----0--|--7--0--5b----0--|--5--0--3b----0--|--7--0--5---/15-15-15-15--|


[Verse 2]

e|----------------------------------------------------------------------------|
B|----------------------------------------------------------------------------|
G|----------------------------------------------------------------------------|
D|--5--5----5--5-4--4----------------------------------------------------0-2--| x6
A|---------------------5--5----5--5---5/7--5--5---7/9-7-5-7--7--2----0-2------|
D|----------------------------------------------------------------------------|

Oh, an echo calls up the line, indication of time
Our togetherness, that is how we evolved
We became our needs, ages up inside
Escaping similar pain, dreaming safe and secure
Generations in line, old and then the youth
Come to meet or fade, a chromosomal raid
Built by what we got built for, as much as what we avoid
So the mystery lifts


[Pre-Chorus 2]

e|---------------------------------------------------------------------------|
B|---------------------------------------------------------------------------|
G|---------------------------------------------------------------------------|
D|---------------------------------------------------------------------------|
A|----5--5---5--5--5--7--7---7--7---7--7---7---7--7---7—---------------------|
D|---------------------------------------------------------------------------|
   We know enough to admit, we know enough to admit


[Chorus 2]

e|---------------------------------------------------------------------------|
B|---------------------------------------------------------------------------|
G|---------------------------------------------------------------------------|
D|---------------------------------------------------------------------------|
A|----------5---------5---0----3---------7b----------5-----5---0----3---3----|
D|----------5---------5---0----3---------7b----------5-----5---0----3---3----|
    It's my pleasure, and your pleasure, it's my pleasure, and your pleasure


e|---------------------------------------------------------------------------|
B|---------------------------------------------------------------------------|
G|---------------------------------------------------------------------------|
D|------------------5--------------------------------------------------------|
A|--/7---------5----5--------------------------------------------------------|
D|--/7---------5----5--------------------------------------------------------|
    That's the same, that's what we're here for!


e|-----------|------------------|------------------|-------------------------|
B|-----------|------------------|------------------|-------------------------|
G|-----------|------------------|------------------|-------------------------|
D|-----------|------------------|------------------|-------------------------| x2
A|--5---5----|-5----0--5---5----|-5----0--3---3----|-5----0--5---5-----------|
D|--5---5----|-5----0--5---5----|-5----0--3---3----|-5----0--5---5-----------|
    Pleasure,  it's my pleasure,  it's my pleasure,  it's my pleasure


e|--------------------|------------------|-------------------|-------------------|
B|--------------------|------------------|-------------------|-------------------|
G|--------------------|------------------|-------------------|-------------------|
D|--------------------|------------------|-------------------|-------------------| 
A|--5---5---5-5-5---5-|-3---3---3-3--5-5-|-5---5---5-5-5---5-|-3---3----3-3--5-5-|
D|--5---5---5-5-5---5-|-3---3---3-3--5-5-|-5---5---5-5-5---5-|-3---3----3-3--5-5-|
    Pleasure,           pleasure,          pleasure,           pleasure,     oh


[Outro]

e|-------------------|-------------------|-------------------|-------------------|
B|-------------------|-------------------|-------------------|-------------------|
G|-------------------|-------------------|-------------------|-------------------|
D|-----------5-5-5-5-|-----------5-5-5-5-|-----------5-5-5-5-|-----------5-5-5-5-| x2
A|--5--0--3----------|--7--0--5----------|--5--0--3----------|--7--0--5----------|
D|--5--0--3----------|--7--0--5----------|--5--0--3----------|--7--0--5----------|
                                                                You know it's true


e|----------x--x--x--|----------x--x--x--|----------x--x--x--|----------x--x--x--|
B|----------x--x--x--|----------x--x--x--|----------x--x--x--|----------x--x--x--|
G|----------x--x--x--|----------x--x--x--|----------x--x--x--|----------x--x--x--|
D|----------x--x--x--|----------x--x--x--|----------x--x--x--|----------x--x--x--| x2
A|--5---5------------|-5---5-------------|-7---2-------------|-5---5-------------|
D|--5---5------------|-5---5-------------|-7---2-------------|-5---5-------------|
    Pleasure,          pleasure,           pleasure,           pleasure

x = deadnote


            
            
Suggest correction
Creating personal tab
Creating personal tab
You can edit any tab online and save it as your Personal.

You can edit, replace or remove any tab part or add personal notes – all changes will be seen only by you.

Personal tabs can be accessed anytime from any device, even offline.
Learn more »
comments
print report bad tab
guest
You may want to rate the tab now too:
select rating
Wanna post a correction for this tab? Suggest correction