Oops, an error
Loading. Please wait.

Secret Heart Bass Tab

version 1
version 1

Whole song

Interactive

2,159 views 1 this week
no commentswrite comment
1 2 3 4 5
please rate
add to favorites
launch autoscroll
font size
0
reset
guitar tuner
Autoscroll
slow
fast
+/-
esc
set tempo
stop
Help us to improve Ultimate-Guitar.com Take our survey!
×
Author
Difficulty
novice
Feist Secret hearts - Bass

G|--------------------------------|
D|--------------------------------|
A|-------2-3---5---7-----2-0---5--|
E|-3------------------------------|

G|--------------------------------|
D|--------------------------------|
A|-------2-3---5---7---------4-5--|
E|-3------------------------------|

G|--------------------------------|
D|-542---------0------------------|
A|---------0----------------------|
E|-----------------3--------------|	x4


Ref: 

G|--------------------------------|
D|--------------------------------|
A|-3-3-3-3-3-3-3-3-5-5-5-5-5-5-5-5|
E|--------------------------------|

G|--------------------------------|
D|--------------------------------|
A|--------------------------------|
E|-3-3-3-3-3-3-3-3-3-3-3-3-3-3-3-3|

G|--------------------------------|
D|--------------------------------|
A|-3-3-3-3-3-3-3-3-5-5-5-5-5-5-5-5|
E|--------------------------------|

G|--------------------------------|
D|--------------------------------|
A|-7-7-7-7-7-7-7-7-8—0--5---------|     
E|--------------------------------|    

G|--------------------------------|
D|--------------------------------|
A|-55-33-22-00--------------------|
E|--------------------------------|



G|--------------------------------|
D|--------------------------------|
A|--------23-35-5-7-7-7-70-05-5---|
E|-3-3-3-3------------------------|

G|--------------------------------|
D|------------20---2--2-----------|
A|--------23------2--2--20--5-----|  
E|-3-3-3-3------------------------|

G|--------------------------------|
D|-542---------0------------------|
A|---------0----------------------|
E|-----------------3--------------|

Zwischenteil Gitarrensolo

G|--------------------------------|
D|--------------------------------|
A|------2-3---5---------2-3---5---|
E|-3--------------3---------------|

G|--------------------------------|
D|--------------------------------|
A|-------2-3---5---------2-3---5--|
E|-3---------------3--------------|

G|--------------------------------|
D|-542---------0------------------|
A|---------0----------------------|
E|-----------------3--------------|
Suggest correction
Give kudos to tab author, rate the tab!
1 2 3 4 5
comments
print report bad tab
guest
You may want to rate the tab now too:
select rating
Please do not post tabs as comments. Select "correction" instead!