Oops, an error
Loading. Please wait.

Water Bass Tab

3,579 views 3 this week
no commentswrite comment
1 2 3 4 5
3 more votes to show rating
add to favorites
launch autoscroll
font size
0
reset
guitar tuner
Autoscroll
slow
fast
+/-
esc
set tempo
stop
Help us to improve Ultimate-Guitar.com Take our survey!
×
Author
-------------------------------------------------------------------------------
			     The Water - Feist
-------------------------------------------------------------------------------
Tabbed By: Valerie L. 
e-mail: v_vengeance6661@yahoo.com

Intro
G|--------------------------|
D|--------------------------|
A|--5~----3~----------------|
E|0-----0----0-3~--0-3~-----| x2

Verse
G|--------------------------|
D|--------------------------|
A|--5~----3~----------------|
E|0-----0----0-3~--0-3~-----| x4

Intro x2
Verse x4

Bridge
G|-----------------------------|
D|-5~---5~----5~---5-----7~----|
A|----5-----5----5----5--------|
E|-----------------------------|

Intro x4

Outro:
G|-------------------|
D|-------------------|
A|5~--3~-------------|
E|--------3~---------|
Suggest correction
Give kudos to tab author, rate the tab!
1 2 3 4 5
comments
print report bad tab
guest
You may want to rate the tab now too:
select rating
Wanna post a correction for this tab? Suggest correction