Oops, an error
Loading. Please wait.

Constantine Constantine bass

712 views 3 this week
no commentswrite comment
1 2 3 4 5
1 last vote to show rating
add to favorites
×
Save as Personal and add changes to this tab that will be seen only by you. Learn more ›
×
You can save this tab as Personal to edit and correct it or add notes. All changes will be seen only by you. Learn more »
launch autoscroll
font size
0
reset
guitar tuner
edit
Autoscroll
slow
fast
+/-
esc
set tempo
stop
-------------------------------------------------------------------------------
                Constantine, Constantine - Feli & The TM Groove
-------------------------------------------------------------------------------
Tabbed by: Andu Needle
E-mail: sulfur_in_my_lungs@yahoo.com

For those who don't know the song, here it is: https://www.youtube.com/watch?v=gb_pVGnzGrs

Intro:

G|---------------------------------------------------------|
D|---------------------------------------------------------|
A|---------------------------------------------------------|
D|-2-2-222-2-2-222-2-2-222-2b-0~---------------------------|(x3)

G|---------------------------------------------------------|
D|---------------------------------------------------------|
A|---------------------------------------------------------|
D|-2-2-222-2-2-222-2-2-7-5-0-------------------------------|

Verse:

G|---------------------------------------------------------|
D|---------------------------------------------------------|
A|---------------------------------------------------------|
D|-2222-7777-2-2-222-2-2-222-------------------------------|(x2)

G|---------------------------------------------------------|
D|---------------------------------------------------------|
A|---------------------------------------------------------|
D|-7777-2222-7777-2222-55555555-33333333-9~--11~-----------|

Intro 2:

G|---------------------------------------------------------|
D|---------------------------------------------------------|
A|---------------------------------------------------------|
D|-2-2-222-2-2-222-2-2-222-2b-0~---------------------------|(x3)

G|---------------------------------------------------------|
D|---------------------------------------------------------|
A|---------------------------------------------------------|
D|-2-2-222-2-2-222-2-2-7-5-0-------------------------------|

Verse 2:

G|---------------------------------------------------------|
D|---------------------------------------------------------|
A|---------------------------------------------------------|
D|-2222-7777-2-2-222-2-2-222-------------------------------|(x2)

G|---------------------------------------------------------|
D|---------------------------------------------------------|
A|---------------------------------------------------------|
D|-7777-2222-7777-2222-55555555-33333333-9~--11~-----------|

G|---------------------------------------------------------|
D|---------------------------------------------------------|
A|---------------------------------------------------------|
D|-2-2-222-2-2-222-----------------------------------------|

G|---------------------------------------------------------|
D|---------------------------------------------------------|
A|---------------------------------------------------------|
D|-7777-2222-7777-2222-55555555-33333333-9~--11~-----------|

A little intro part again:

G|---------------------------------------------------------|
D|---------------------------------------------------------|
A|---------------------------------------------------------|
D|-2-2-222-2-2-222-2-2-222-2b-0~---------------------------|

Bridge part:

G|---------------------------------------------------------|
D|---------------------------------------------------------|
A|---------------------------7654--------------------------|
D|-2-2-222-7-7-777-2-2-222-2-------------------------------|(x3)

G|---------------------------------------------------------|
D|---------------------------------------------------------|
A|---------------------------------------------------------|
D|-2-2-222-7-7-777-2-2-222-2-7-5-4-------------------------|

Verse 3 is like Verse 2.
That little intro part again.
Bridge again.

Verse 4 is like Verse 1.
That little intro  again.

Bridge + outro:

G|----------------------------------------------------------|
D|----------------------------------------------------------|
A|---------------------------7654---------------------------|
D|-2-2-222-7-7-777-2-2-222-2--------------------------------|(x3)

G|----------------------------------------------------------|
D|----------------------------------------------------------|
A|----------------------------------------------------------|
D|-2-2-222-7-7-777-2-2-222-7-0~-----------------------------|

Note: that little fill from the bridge (-7654-) is played pretty fast.
Suggest correction
Creating personal tab
Creating personal tab
You can edit any tab online and save it as your Personal.

You can edit, replace or remove any tab part or add personal notes – all changes will be seen only by you.

Personal tabs can be accessed anytime from any device, even offline.
Learn more »
Give kudos to tab author, rate the tab!
1 2 3 4 5
comments
print report bad tab
guest
You may want to rate the tab now too:
select rating
Wanna post a correction for this tab? Suggest correction