Oops, an error
Loading. Please wait.

Immerse Tab

version 1
version 1

Whole song

Interactive

8,592 views 6 this week
3 commentsread comments
1 2 3 4 5
1 last vote to show rating
add to favorites
×
Save as Personal and add changes to this tab that will be seen only by you. Learn more ›
×
You can save this tab as Personal to edit and correct it or add notes. All changes will be seen only by you. Learn more »
save as personal
new!
launch autoscroll
font size
0
reset
how to read this tab
guitar tuner
Autoscroll
slow
fast
+/-
esc
set tempo
stop
Author
(Gtr 1) (Bb F Bb Eb F Bb Eb) - 'Untitled'
(Gtr 2) (Bb F Bb Eb F Bb Eb) - 'Untitled'

 [Section 1]
  Q=140
 4/4
(Gtrs 1, 2)
                             PM--------|           PM---
  H    Q    Q      S  S S  S S S S S S S S  S S  S S S
e|----------------|-------------------------------------|
B|----------------|-------------------------------------|
G|----------------|-------------------------------------|
D|----------------|-------------------------------------|
A|----------------|------0h12------------------0h12-----|
E|------7b8--7b8--|-------------------------------------|
B|----------------|-0h12------0-0-0-0-0-0-0h12------0-0-|

 -------|           PM|       PM|             PM|              PM----|
  S S S S S  S S  S S S  S  S S S S  S   S  S S S Q  S  S S  S S S S S
e|--------------------------------------|----------------------------------|
B|--------------------------------------|----------------------------------|
G|--------------------------------------|----------------------------------|
D|--------------------------------------|----------------------------------|
A|--------------0h12--------------------|-0h12-------------0h12------------|
E|-----------------------13-13----------|----------------------------------|
B|-0-0-0-0-0h12------0-0-------0-0-0h12-|------0-0-0--0h12------0-0-0-0----|

  PM|           PM|       PM|       PM|             PM--------|           PM---
  S S S  S S  S S S  S  S S S  S  S S S   S  S S  S S S S S S S S  S S  S S S
e|---------------------------------------|-------------------------------------|
B|---------------------------------------|-------------------------------------|
G|---------------------------------------|-------------------------------------|
D|---------------------------------------|-------------------------------------|
A|----------0h12-------------------------|------0h12------------------0h12-----|
E|-------------------13-13---------------|-------------------------------------|
B|-0-0-0h12------0-0-------0-0-14-14-0-0-|-0h12------0-0-0-0-0-0-0h12------0-0-|

 -------|           PM|       PM|             PM|              PM----|
  S S S S S  S S  S S S  S  S S S S  S   S  S S S Q  S  S S  S S S S S
e|--------------------------------------|----------------------------------|
B|--------------------------------------|----------------------------------|
G|--------------------------------------|----------------------------------|
D|--------------------------------------|----------------------------------|
A|--------------0h12--------------------|-0h12-------------0h12------------|
E|-----------------------13-13----------|----------------------------------|
B|-0-0-0-0-0h12------0-0-------0-0-0h12-|------0-0-0--0h12------0-0-0-0----|

                               2/4
  PM|           PM|                     PM|
  S S S  S S  S S S Q    Q      S S S S S S E
e|-----------------------------|---------------|
B|-----------------------------|---------------|
G|-----------------------------|---------------|
D|-----------------------------|---------------|
A|----------0h12---------------|-----0h7-------|
E|-------------------7b8--7b8--|---------------|
B|-0-0-0h12------0-0-----------|-0h8-----0-0---|

 [Section 2]
 4/4
                   PM    PM  PM~
  S S S S Q  E. E. E   E S E S E S S S S Q
e|--------------------|-----------------------|
B|--------------------|-----------------------|
G|------------0--0----|-0---------------------|
D|------------7--7----|-6---------------------|
A|-----0h7----8--8----|-7-------------0h7-----|
E|------------x--x----|-x---------------------|
B|-0h8-----0--8--8--0-|-7-0-2-0-3-0h8-----0---|

        PM  PM    PM ~~~                   PM
  E. E. E E S  E  S  E    S S S S Q  E. E. E
e|-----------------------|--------------------|
B|-----------------------|--------------------|
G|-0--0----0-------------|------------0--0----|
D|-7--7----6-------------|------------7--7----|
A|-8--8----7-------------|-----0h7----8--8----|
E|-x--x----x---(2)---(3)-|------------x--x----|
B|-8--8--0-7-0--2--0--3--|-0h8-----0--8--8--0-|

                            PM  PM    PM ~~~
  Q   Q  S S S S Q    E. E. E E S  E  S  E
e|-------------------|-----------------------|
B|-------------------|-----------------------|
G|-------------------|-0--0----0-------------|
D|-7\----------------|-7--7----6-------------|
A|-x\---------0h7----|-8--8----7-------------|
E|-5\----------------|-x--x----x---(2)---(3)-|
B|-----0--0h8-----0--|-8--8--0-7-0--2--0--3--|

(Gtr 1)
                   PM    PM    PM ~~~
  S S S S Q  E. E. E   E S  E  S  E  S S S S Q
e|--------------------|--------------------------|
B|--------------------|--------------------------|
G|------------0--0----|-0------------------------|
D|------------7--7----|-6------------------------|
A|-----0h7----8--8----|-7-----------------0h7----|
E|------------x--x----|-x---(2)---(3)------------|
B|-0h8-----0--8--8--0-|-7-0--2--0--3--0h8-----0--|

(Gtr 2)
|                  PM    PM    PM ~~~
| S S S S Q  E. E. E   E S  E  S  E  S S S S Q
e|--------------------|--------------------------|
B|--------------------|--------------------------|
G|------------0--0----|-0------------------------|
D|------------7--7----|-6------------------------|
A|-----0h7----8--8----|-7-----------------0h7----|
E|------------x--x----|-x------------------------|
B|-0h8-----0--8--8--0-|-7-0--2--0--3--0h8-----0--|

                                             3/4
        PM                                    PM----|
                                              |-3-|
  E. E. E Q   Q    S  S S  S Q       Q   Q    E E E E Q.
e|----------------|--------------------------|---------------|
B|----------------|--------------------------|---------------|
G|-0--0-----------|--------------------------|---------------|
D|-7--7----7\-----|--------------------------|---------------|
A|-8--8----x\-----|------0h12----------------|-0-0-0-0-------|
E|-x--x----5\-----|--------------------------|-0-0-0-0-------|
B|-8--8--0-----0--|-0h13--------------8\--0--|-0-0-0-0-------|

|       PM                                    PM----|
|                                             |-3-|
| E. E. E Q   Q    Q         S S S S Q   Q    E E E E Q.
e|----------------|--------------------------|---------------|
B|----------------|--------------------------|---------------|
G|-0--0-----------|--------------------------|---------------|
D|-7--7----7\-----|--------------------------|---------------|
A|-8--8----x\-----|---------------0h7--------|-0-0-0-0-------|
E|-x--x----5\-----|--------------------------|-0-0-0-0-------|
B|-8--8--0-----0--|-----------0h8-----8\--0--|-0-0-0-0-------|

[Section 3]
    Q=142
   4/4
    (Gtrs 1, 2)
    PM|   PM|       PM|   PM              PM|   PM|        PM|   PM
    S S S S S S E   S S S S S S E     +E  S S S S S S Q    S S S S
e|----------------------------------|------------------------------|
B|----------------------------------|------------------------------|
G|o---------------------------------|------------------------------|
D|----------------------------------|------------------------------|
A|o---------------------------------|------------------------------|
E|--------------5b6-------------5b6-|-(5)-------------5b6----------|
B|--0-0-x-0-0-x-----0-0-x-0-0h3-----|-----0-0-x-0-0-x------0-0-x-0-|

           PM|   PM|          PM|   PM        PM|   PM|   PM|
  S S Q    S S S S S S Q      S S S S S S E   S S S S S S S S
e|---------------------------|-------------------------------------|
B|---------------------------|-------------------------------------|
G|---------------------------|------------------------------------o|
D|---------------------------|-------------------------------------|
A|---------------------------|------------------------------------o|
E|-----5b6--------------5b6--|-------------5b6---------------------|
B|-0h3------0-0-x-0-0-x------|-0-0-x-0-0h3-----0-0-x-0-0-x-0-0-----|

  S E S E E   S E S E E     +E    S E S E Q    S E S
e|-------------------------|--------------------------|
B|-------------------------|--------------------------|
G|---------6-----------6---|-(6)-----------6----------|
D|---------7b9---------7b9-|-(7)b9---------7b9--------|
A|-------------------------|--------------------------|
E|-------------------------|--------------------------|
B|-0-0-0-0-----0-0-0-0-----|-------0-0-0-0------0-0-0-|

                                            PM|
  E Q    S E S E Q      S E S E E   S E S E S S
e|---------------------|-------------------------|
B|---------------------|-------------------------|
G|---6------------6----|---------6---------------|
D|---7b9----------7b9--|---------7b9-------------|
A|---------------------|-------------------------|
E|---------------------|-------------------------|
B|-0------0-0-0-0------|-0-0-0-0-----0-0-0-0-0-0-|

(Gtr 1)
  S E S E E   S E S E E     +E    S E S E Q    S E S
e|-------------------------|--------------------------|
B|-------------------------|--------------------------|
G|---------6-----------6---|-(6)-----------6----------|
D|---------7b9---------7b9-|-(7)-----------7b9--------|
A|-------------------------|--------------------------|
E|-------------------------|--------------------------|
B|-0-0-0-0-----0-0-0-0-----|-------0-0-0-0------0-0-0-|

(Gtr 2)
| S E S E E   S E S E E     +E    S E S E Q    S E S
e|-------------------------|--------------------------|
B|-------------------------|--------------------------|
G|---------6-----------6---|-(6)-----------6----------|
D|---------7b9---------7b9-|-(7)b9---------7b9--------|
A|-------------------------|--------------------------|
E|-------------------------|--------------------------|
B|-0-0-0-0-----0-0-0-0-----|-------0-0-0-0------0-0-0-|

                        PM----|             PM|
  E Q    S E S E Q      S E S E  S  S  S  S S S S  S S  S
e|---------------------|-----------------------------------|
B|---------------------|-----------------------------------|
G|---6------------6----|-----------------------------------|
D|---7b9----------7b9--|---------14-14-14-14---------------|
A|---------------------|-0-0-0-0--x--x--x--x----------0h12-|
E|---------------------|-0-0-0-0-13-13-13-13-0-0-----------|
B|-0------0-0-0-0------|-0-0-0-0-------------0-0-0h13------|

|                       PM----|             PM|
| E Q    S E S E Q      S E S E  S  S  S  S S S S  S S  S
e|---------------------|-----------------------------------|
B|---------------------|-----------------------------------|
G|---6------------6----|-----------------------------------|
D|---7b9----------7b9--|---------14-14-14-14---------------|
A|---------------------|-0-0-0-0--x--x--x--x----------0h12-|
E|---------------------|-0-0-0-0-13-13-13-13-0-0-----------|
B|-0------0-0-0-0------|-0-0-0-0-------------0-0-0h13------|

[Section 4]
    S  S S  S S S  S  S  S  S S S S  S S  S
e|------------------------------------------|
B|------------------------------------------|
G|o-----------------------------------------|
D|------------x-x-14-14-14-14-x-x-----------|
A|o------0h12-x-x--x--x--x--x-x-x------0h12-|
E|------------x-x-13-13-13-13-x-x-----------|
B|--0h13------x-x-------------x-x-0h13------|

|   S  S S  S S S  S  S  S  S S S S  S S  S
e|------------------------------------------|
B|------------------------------------------|
G|o-----------------------------------------|
D|------------x-x-14-14-14-14-x-x-----------|
A|o------0h12-x-x--x--x--x--x-x-x------0h12-|
E|------------x-x-13-13-13-13-x-x-----------|
B|--0h13------x-x-------------x-x-0h13------|

  S S  S  S S S S  S S  S S S  S  S  S  S
e|-----------------------------------------|
B|-----------------------------------------|
G|-----------------------------------------|
D|-x-x-14-14-x-x-----------x-x-14-14-14-14-|
A|-x-x--x--x-x-x------0h12-x-x--x--x--x--x-|
E|-x-x-13-13-x-x-----------x-x-13-13-13-13-|
B|-x-x-12-12-x-x-0h13------x-x-------------|

| S S  S  S S S S  S S  S S S  S  S  S  S
e|-----------------------------------------|
B|-----------------------------------------|
G|-----------------------------------------|
D|-x-x-14-14-x-x-----------x-x-14-14-14-14-|
A|-x-x--x--x-x-x------0h12-x-x--x--x--x--x-|
E|-x-x-13-13-x-x-----------x-x-13-13-13-13-|
B|-x-x-------x-x-0h13------x-x-------------|

   S  S  S  S  S  S S S S  S S  S S S  S  S
e|-------------------------------------------|
B|-------------------------------------------|
G|-------------------------------------------|
D|-14-14-14-14-14-14-x-x-----------x-x-14-14-|
A|--x--x--x--x--x--x-x-x------0h12-x-x--x--x-|
E|-13-13-13-13-13-13-x-x-----------x-x-13-13-|
B|-------------------x-x-0h13------x-x-------|

|  S  S  S  S  S  S S S S  S S  S S S  S  S
e|-------------------------------------------|
B|-------------------------------------------|
G|-------------------------------------------|
D|-14-14-14-14-14-14-x-x-----------x-x-14-14-|
A|--x--x--x--x--x--x-x-x------0h12-x-x--x--x-|
E|-13-13-13-13-13-13-x-x-----------x-x-13-13-|
B|-------------------x-x-0h13------x-x-------|

  S S S  S S  S S S  S  S  S  S  S  S S S       S  S S  S Q       Q.   E
e|------------------------------------------|-|-----------------------------|
B|------------------------------------------|-|-----------------------------|
G|-----------------------------------------o|-|-----------------------------|
D|-x-x-----------x-x-14-14-14-14-14-14-x-x--|-|-----------------------------|
A|-x-x------0h12-x-x--x--x--x--x--x--x-x-x-o|-|------0h12-------------------|
E|-x-x-----------x-x-13-13-13-13-13-13-x-x--|-|-----------------------------|
B|-x-x-0h13------x-x-------------------x-x--|-|-0h13--------------8\--------|

| S S S  S S  S S S  S  S  S  S  S  S S S       Q         S S S S Q.   E
e|------------------------------------------|-|-----------------------------|
B|------------------------------------------|-|-----------------------------|
G|-----------------------------------------o|-|-----------------------------|
D|-x-x-----------x-x-14-14-14-14-14-14-x-x--|-|-----------------------------|
A|-x-x------0h12-x-x--x--x--x--x--x--x-x-x-o|-|---------------0h7-----------|
E|-x-x-----------x-x-13-13-13-13-13-13-x-x--|-|-----------------------------|
B|-x-x-0h13------x-x-------------------x-x--|-|-----------0h8-----8\--------|

[Section 5]
    Q=140
(Gtrs 1, 2)
                     PM    PM  PM~
    S S S S Q  E. E. E   E S E S E S S S S Q
e|---------------------|----------------------|
B|---------------------|----------------------|
G|o------------0--0----|-0--------------------|
D|-------------7--7----|-6--------------------|
A|o-----0h7----8--8----|-7-------------0h7----|
E|-------------x--x----|-x--------------------|
B|--0h8-----0--8--8--0-|-7-0-2-0-3-0h8-----0--|

        PM  PM  PM~                    PM           PM------|
  E. E. E E S E S E   S S S S Q  E. E. E     Q   Q  S E S e E
e|-------------------|---------------------|---------------------|
B|-------------------|---------------------|---------------------|
G|-0--0----0---------|------------0--0----o|---------------------|
D|-7--7----6---------|------------7--7-----|-7\------------------|
A|-8--8----7---------|-----0h7----8--8----o|-5\------------------|
E|-x--x----x---------|------------x--x-----|-x\------------------|
B|-8--8--0-7-0-2-0-3-|-0h8-----0--8--8--0--|-5\--0--0-0-0-0------|

                                  2/4
  W          W          W          W
e|----------|----------|----------|------|
B|----------|----------|----------|------|
G|----------|----------|----------|------|
D|----------|----------|----------|------|
A|----------|----------|----------|------|
E|----------|----------|----------|------|
B|----------|----------|----------|------|

[Section 6]
   4/4
              PM--------|           PM---
    S  S S  S S S S S S S S  S S  S S S
e|--------------------------------------|
B|--------------------------------------|
G|o-------------------------------------|
D|--------------------------------------|
A|o------0h12------------------0h12-----|
E|--------------------------------------|
B|--0h12------0-0-0-0-0-0-0h12------0-0-|

 -------|           PM|       PM|
  S S S S S  S S  S S S  S  S S S S  S
e|---------------------------------------|
B|---------------------------------------|
G|---------------------------------------|
D|---------------------------------------|
A|--------------0h12---------------------|
E|-----------------------13-13-----------|
B|-0-0-0-0-0h12------0-0-------0-0-0h12--|

       PM--------|           PM-------
  S  S S S S S S S S  S S  S S S S S
e|------------------------------------|
B|------------------------------------|
G|------------------------------------|
D|------------------------------------|
A|-0h12------------------0h12---------|
E|------------------------------------|
B|------0-0-0-0-0-0-0h12------0-0-0-0-|

 1.,2.,3.                                    4.
 ---|           PM|       PM|       PM----------|           PM|
  S S S  S S  S S S  S  S S S  S  S S S  3x   S S S  S S  S S S Q    Q
e|----------------------------------------|-|-------------------------------|
B|----------------------------------------|-|-------------------------------|
G|---------------------------------------o|-|-------------------------------|
D|----------------------------------------|-|-------------------------------|
A|----------0h12-------------------------o|-|----------0h12-----------------|
E|-------------------13-13----------------|-|-------------------7b8--7b8----|
B|-0-0-0h12------0-0-------0-0-14-14-0-0--|-|-0-0-0h12------0-0-------------|

[Section 7] 
(Part 2)
              PM--------|           PM----------|    PM|       PM|
    S  S S  S S S S S S S S  S S  S S S   S S S S Q  S S  S  S S S S  S
e|--------------------------------------|--------------------------------|
B|--------------------------------------|--------------------------------|
G|o-------------------------------------|--------------------------------|
D|--------------------------------------|--------------------------------|
A|o------0h12------------------0h12-----|--------------------------------|
E|--------------------------------------|----------------13-13-----------|
B|--0h12------0-0-0-0-0-0-0h12------0-0-|-0-0-0-0-0--0-0-------0-0-0h12--|

                                 1.
       PM|              PM----------|           PM|       PM|       PM-----
  S  S S S Q  S  S S  S S S S S   S S S  S S  S S S  S  S S S  S  S S S
e|-------------------------------|----------------------------------------|
B|-------------------------------|----------------------------------------|
G|-------------------------------|---------------------------------------o|
D|-------------------------------|----------------------------------------|
A|-0h12-------------0h12---------|----------0h12-------------------------o|
E|-------------------------------|-------------------13-13----------------|
B|------0-0-0--0h12------0-0-0-0-|-0-0-0h12------0-0-------0-0-14-14-0-0--|

   2.
 -----|           PM|
    S S S  S S  S S S Q    Q
e|-|------------------------------|
B|-|------------------------------|
G|-|------------------------------|
D|-|------------------------------|
A|-|----------0h12----------------|
E|-|-------------------7b8--7b8---|
B|-|-0-0-0h12------0-0------------|

              PM--------|           PM----------|    PM|       PM|
    S  S S  S S S S S S S S  S S  S S S   S S S S Q  S S  S  S S S S  S
e|--------------------------------------|--------------------------------|
B|--------------------------------------|--------------------------------|
G|o-------------------------------------|--------------------------------|
D|--------------------------------------|--------------------------------|
A|o------0h12------------------0h12-----|--------------------------------|
E|--------------------------------------|----------------13-13-----------|
B|--0h12------0-0-0-0-0-0-0h12------0-0-|-0-0-0-0-0--0-0-------0-0-0h12--|

                                 1.
       PM|              PM----------|           PM|       PM|       PM-----
  S  S S S Q  S  S S  S S S S S   S S S  S S  S S S  S  S S S  S  S S S  (3x)
e|-------------------------------|----------------------------------------|
B|-------------------------------|----------------------------------------|
G|-------------------------------|---------------------------------------o|
D|-------------------------------|----------------------------------------|
A|-0h12-------------0h12---------|----------0h12-------------------------o|
E|-------------------------------|-------------------13-13----------------|
B|------0-0-0--0h12------0-0-0-0-|-0-0-0h12------0-0-------0-0-14-14-0-0--|

   2.
 -----|           PM|
    S S S  S S  S S S Q    Q
e|-|------------------------------|
B|-|------------------------------|
G|-|------------------------------|
D|-|------------------------------|
A|-|----------0h12----------------|
E|-|-------------------7b8--7b8---|
B|-|-0-0-0h12------0-0------------|

  Q=142
  (Gtr 1)
  PM----|   PM----|         PM----|    PM-----
  S E S E E S E S E E   +E  S E S E Q  S E S
e|---------------------|----------------------|
B|---------------------|----------------------|
G|---------6---------6-|-(6)---------6--------|
D|---------7---------7-|-(7)---------7--------|
A|---------------------|----------------------|
E|-0-0-0-0---0-0-0-0---|-----0-0-0-0----0-0-0-|
B|-0-0-0-0---0-0-0-0---|-----0-0-0-0----0-0-0-|

(Gtr 2)
| W                      W
e|---------------------|----------------------|
B|---------------------|----------------------|
G|---------------------|----------------------|
D|---------------------|----------------------|
A|---------------------|----------------------|
E|---------------------|----------------------|
B|---------------------|----------------------|

 -|     PM----|        PM-----|   PM--|
  E  Q  S E S E Q      S  E S E E S E S  Q
e|--------------------|------------------------|
B|--------------------|------------------------|
G|----6----------6----|----------6-------------|
D|----7----------7----|----------7-------------|
A|--------------------|------------------12----|
E|-0-----0-0-0-0------|-0--0-0-0---0-0-0-12\---|
B|-0-----0-0-0-0------|-0--0-0-0---0-0-0-12S===|

| H.            Q      H.                Q
e|--------------------|------------------------|
B|--------------------|------------------------|
G|--------------------|------------------------|
D|--------------------|------------------------|
A|--------------------|------------------12----|
E|---------------7b8--|------------------12S===|
B|--------------------|------------------12S===|

[Section 7]
(Gtrs 1, 2)
    PM----|   PM----|          PM----|     PM-----
    S E S E E S E S E E   +E   S E S E Q   S E S
e|----------------------|------------------------|
B|----------------------|------------------------|
G|o---------6---------6-|-(6)\---------6\--------|
D|----------7---------7-|-(7)\---------7\--------|
A|o---------------------|------------------------|
E|--0-0-0-0---0-0-0-0---|------0-0-0-0-----0-0-0-|
B|--0-0-0-0---0-0-0-0---|------0-0-0-0-----0-0-0-|

 -|     PM----|       PM----|   PM--------|
  E Q   S E S E Q     S E S E E S E S E S S
e|-------------------|--------------------------|
B|-------------------|--------------------------|
G|---6\----------6\--|---------6---------------o|
D|---7\----------7\--|---------7----------------|
A|-------------------|-------------------------o|
E|-0-----0-0-0-0-----|-0-0-0-0---0-0-0-0-0-0----|
B|-0-----0-0-0-0-----|-0-0-0-0---0-0-0-0-0-0----|

            PM-|     PM----|    PM-----
    H    E. E. E   E S E S E Q  S E S
e|-------3-------|-----------3--------|
B|-------3-------|-----------3--------|
G|o------6-------|-----------6--------|
D|-------7-------|-----------7--------|
A|o---------0--0-|---0-0-0-0----0-0-0-|
E|----------0--0-|---0-0-0-0----0-0-0-|
B|--0-------0--0-|---0-0-0-0----0-0-0-|

 -|    PM----|      PM----|   PM  PM  PM|
  E Q  S E S E Q    S E S E E S E S E S S
e|---3----------3--|---------3--------------|
B|---3----------3--|---------3--------------|
G|---6----------6--|---------6-------------o|
D|---7----------7--|---------7--------------|
A|-0----0-0-0-0----|-0-0-0-0---0-0-0-0-0-0-o|
E|-0----0-0-0-0----|-0-0-0-0---0-0-0-0-0-0--|
B|-0----0-0-0-0----|-0-0-0-0---0-0-0-0-0-0--|

[Section 8]
  S  S S  S S S  S  S  S  S S S S  S S  S
e|-----------------------------------------|
B|-----------------------------------------|
G|-----------------------------------------|
D|-----------x-x-14-14-14-14-x-x-----------|
A|------0h12-x-x--x--x--x--x-x-x------0h12-|
E|-----------x-x-13-13-13-13-x-x-----------|
B|-0h13------x-x-------------x-x-0h13------|

  S S  S  S S S S  S S  S S S  S  S  S  S
e|-----------------------------------------|
B|-----------------------------------------|
G|-----------------------------------------|
D|-x-x-14-14-x-x-----------x-x-14-14-14-14-|
A|-x-x--x--x-x-x------0h12-x-x--x--x--x--x-|
E|-x-x-13-13-x-x-----------x-x-13-13-13-13-|
B|-x-x-------x-x-0h13------x-x-------------|

   S  S  S  S  S  S S S S  S S  S S S  S  S
e|-------------------------------------------|
B|-------------------------------------------|
G|-------------------------------------------|
D|-14-14-14-14-14-14-x-x-----------x-x-14-14-|
A|--x--x--x--x--x--x-x-x------0h12-x-x--x--x-|
E|-13-13-13-13-13-13-x-x-----------x-x-13-13-|
B|-------------------x-x-0h13------x-x-------|

                               2/4
                                        PM|
  S S S  S S  S S S Q    Q      S S S S S S E
e|-----------------------------|---------------|
B|-----------------------------|---------------|
G|-----------------------------|---------------|
D|-x-x-----------x-x-----------|---------------|
A|-x-x------0h12-x-x-----------|-----0h7-------|
E|-x-x-----------x-x-7b8--7b8--|---------------|
B|-x-x-0h13------x-x-----------|-0h8-----0-0---|

[Section 9]
   4/4
    PM|       PM|       PM|       PM|                 PM|
    S  S S  S S S E +E  S  S S  S S S   Q  Q  E E +E  S  S
e|------------------------------------|--------------------|
B|------------------------------------|--------------------|
G|o-----------------------------------|--------------------|
D|------------------------------------|--------------------|
A|o------0h12----------------0h12-----|--------------------|
E|----------------1-(1)---------------|-1--1--x-2-(2)------|
B|--0h12------0-0-------0h12------0-0-|---------------0h12-|

            PM|       PM|               PM|       PM|     PM|
  S  S E Q  S  S S  S S S E   +E  E +E  S  S S  S S S S S S S
e|---------------------------|----------------------------------|
B|---------------------------|----------------------------------|
G|---------------------------|---------------------------------o|
D|---------------------------|----------------------------------|
A|-0h12-----------0h12-------|----------------0h12-------------o|
E|-------------------------2-|-(2)-2-(2)---------------0h1p0----|
B|--------0--0h12------0-0---|-----------0h12------0-0-------0--|

    PM|       PM|       PM|       PM|                 PM|
    S  S S  S S S E +E  S  S S  S S S   Q  Q  E E +E  S  S
e|------------------------------------|--------------------|
B|------------------------------------|--------------------|
G|o-----------------------------------|--------------------|
D|----------------3-------------------|-3--3----4-(4)------|
A|o------0h12----------------0h12-----|--------------------|
E|----------------1-(1)---------------|-1--1--x-2-(2)------|
B|--0h12------0-0-------0h12------0-0-|---------------0h12-|

            PM|       PM|               PM|       PM|     PM|
  S  S E Q  S  S S  S S S E   +E  E +E  S  S S  S S S S S S S
e|---------------------------|------------------------------------|
B|---------------------------|------------------------------------|
G|---------------------------|-----------------------------------o|
D|-------------------------4-|-(4)-4-(4)--------------------------|
A|-0h12-----------0h12-------|----------------0h12---------------o|
E|-------------------------2-|-(2)-2-(2)---------------0h1p0------|
B|--------0--0h12------0-0---|-----------0h12------0-0-------0----|

    H.=H
    H    E  H      +W           H    E  H      +W
e|---------------|------------|--------------|---------|
B|-------3-------|-(3)--------|------3-------|-(3)-----|
G|o--------------|------------|--------------|--------o|
D|---------------|------------|--------------|---------|
A|o---------3----|-(3)--------|---------3----|-(3)----o|
E|---------------|------------|--------------|---------|
B|--0------------|------------|-0------------|---------|


************************************

| h    Hammer-on
| b    Bend
| PM   Palm mute
| x    Dead note
| ~    Vibrato
| (n)  Ghost note
| \    Slide down
| p    Pull-off

************************************
Suggest correction
Give kudos to tab author, rate the tab!
1 2 3 4 5
comments
print report bad tab
3 comments total.
+1 reply
MatReeves 332 Apr 08, 2009 04:31 PM

this is an awesome tab dude good job!

+1 reply
ponnightingale 170 Apr 25, 2009 06:13 AM

Pity he didn't actually write it, just copied it off of their Myspace ;)

+1 reply
troutmasta 10 May 04, 2012 06:06 AM

anyone know how to do that lil ambient intro part?

guest
You may want to rate the tab now too:
select rating
Wanna post a correction for this tab? Suggest correction