Oops, an error
Loading. Please wait.

Fabula De Sexo Y Amor tab

version 2
version 2

Whole song

by Felo
25 views 1 this week
no commentswrite comment
1 2 3 4 5
3 more votes to show rating
add to favorites
×
Save as Personal and add changes to this tab that will be seen only by you. Learn more ›
×
You can save this tab as Personal to edit and correct it or add notes. All changes will be seen only by you. Learn more »
launch autoscroll
font size
0
reset
how to read this tab
guitar tuner
edit
Autoscroll
slow
fast
+/-
esc
set tempo
stop
(la cancion se toca un tono 1/2 mas alto)

Intro:

Am

E--0----------------0----------------0--------------------0-------------
B-----1----------------1----------------1-----------------1-------------
G--------------2---------------2-----------------2--------2-------------
D--------1/2--------------1/2--------------1/2------------2-------------
A--0----------------0----------------0--------------------0-------------
E-----------------------------------------------------------------------


la cancion se toca TODA igual y la guitarra comienza donde esta el "_":

   LAm                                                MI
E--0----------------0----------------0----------------0-----------------
B-----1----------------1----------------1----------------0--------------
G--------------2---------------2-----------------2---------------1------
D--------1/2--------------1/2--------------1/2--------------1/2---------
A--0----------------0----------------0----------------------------------
E-----------------------------------------------------0-----------------

                                                          LAm
E--0--------------------0----------------0----------------0-------------
B-----0--------------------0----------------0----------------1----------
G-------------1--------------------1----------------1----------------2--
D-------1/2------------------1/2---------------1/2--------------1/2-----
A---------------------------------------------------------0-------------
E--0--------------------0----------------0------------------------------

                                                      REm
E--0----------------0----------------0-----------------------0---1------
B-----1----------------1----------------1-----------------3------3------
G--------------2---------------2-----------------2------2---------------
D--------1/2--------------1/2--------------1/2--------0----------0------
A--0----------------0----------------0----------------------------------
E-----------------------------------------------------------------------

                                 LAm
E-----1------1-------1------1----0----------------0---------------------
B-----3------3-------3------3--------1---------------1------------------
G---------------------------------------------2--------------2----------
D--0-------------0----------------------1/2-------------1/2-------------
A--------0--------------0--------0----------------0---------------------
E-----------------------------------------------------------------------

   MI                                    LAm
E--0--------------------0----------------0----------------0-------------
B-----0--------------------0----------------1----------------1----------
G-------------2--------------------2----------------2----------------2--
D-------1/2------------------1/2---------------1/2--------------1/2-----
A----------------------------------------0----------------0-------------
E--0--------------------0-----------------------------------------------


   REm         SOL7        DO                           MI
E--1-----------------------0-------------0--------------0---------------
B--------3-----0-----3--------1-------------1--------------0------------
G-----2-----2-----0-----0-------------0-------------0--------------1----
D--0-----------------0-----------0/2-----------0/2------------1/2-------
A--------0-----------------3-------------3------------------------------
E--------------3----------------------------------------0---------------

                                                                lam/do#
E--0--------------------0----------------0----------------------0-----0-
B-----0--------------------0------------------------------------1-----1-
G-------------2--------------------2------------------------------------
D-------1/2------------------1/2----------------------------------------
A------------------------------------------------------------0------4---
E--0--------------------0----------------0-------0-/-2-/-4--------------


E-----0---------------0-----0-----0-----0-----0----0-----0--------------
B-----1---------------1-----1-----1-----1-----1----1-----1--------------
G--------------------------------------------------------2--------------
D--2---------------------------2-------------------------2--------------
A------------------0-----3-----------3-----0-----3----------------------
E-------0-/-2-/-4-------------------------------------------------------


         LAm                                        MI
el sexo _es el motor del mundo es el motor de la sociedad
                                                       LAm
mueve pasiones tambien montañas hasta las ancias de libertad
                                                 REm
a adan y eva los castigaron por aquel acto tan natural
                              LAm                MI       LAm
en nuestros dias no falta el padre que ve en su lola la castidad
        REm   SOL7      DO               MI    VI(0-2-4)lam
ni se imagina que su pequeña, todos los dias... parapapam

(toda la cancion es igual)


yo no comprendo a aquellas personas que sobreviven sin el ritual
se hallan castradas y mutiladas por que les falta lo principal
quisiera darles un buen consejo muy saludable sano y vital
por que es hermoso y no es pecado y por que es bueno y natural
asi que amigos no pierdan tiempo y desde esta noche... parapapam

tengo una amiga que es solterona que ya paso de los 33
me ha confesado que este bocado no lo ha probado ninguna vez
yo con mi alma caritativa quise ayudarla sin interes
pero ella dice que aun no es tiempo que tiene miedo que le hara mal
y yo le explico que esta mal genio, por que le falta... parapapam

tambien mil veces me he preuntado como lo pueden sobrellevar
los que por causa de su trabajo se les prohibe parapapam
yo me refiero a los concientes que se dedican solo a rezar
y desvelados alguna noche habran pensado como sera
si ya dormidos se ven sonrientes, es que en sus sueños...parapapam

por lo que digo espero que nadie me califique de inmoral
pues cuando toco esta materia se me despierta lo animal
si estan pensando lo que yo quiero pienso que ustedes quieren igual
si alguna niña me ha comprendido ahora mismo me puede hablar
de todos modos modestamente, no le aseguro... parapapam

            
            
Suggest correction
Creating personal tab
Creating personal tab
You can edit any tab online and save it as your Personal.

You can edit, replace or remove any tab part or add personal notes – all changes will be seen only by you.

Personal tabs can be accessed anytime from any device, even offline.
Learn more »
Give kudos to tab author, rate the tab!
1 2 3 4 5
comments
print report bad tab
guest
Wanna post a correction for this tab? Suggest correction