Oops, an error
Loading. Please wait.

Fortune tab

by Felt
569 views 1 this week
no commentswrite comment
1 2 3 4 5
2 more votes to show rating
add to favorites
×
Save as Personal and add changes to this tab that will be seen only by you. Learn more ›
×
You can save this tab as Personal to edit and correct it or add notes. All changes will be seen only by you. Learn more »
launch autoscroll
font size
0
reset
how to read this tab
guitar tuner
edit
Autoscroll
slow
fast
+/-
esc
set tempo
stop
Artist: Felt
Song: "Fortune"
Album: Crumbling the Antiseptic Beauty (1982)
Sunlight Bathed the Golden Glow 7"/12" (1984)
Gold Mine Trash (1987)



Tuning: Standard



Guitars: Lawrence



MAIN RHYTHM PART I:
Guitar II
e|-0-----------------0----------------------------------------------------------------------------|
B|-1-----------------1----------------------------------------------------------------------------|
G|-2-----------------2----------------------------------------------------------------------------|
D|-3-----------------3----------------------------------------------------------------------------|
A|------------------------------------------------------------------------------------------------|
E|------------------------------------------------------------------------------------------------|
+
e|-0-----------------0----------------------------------------------------------------------------|
B|-3-----------------3----------------------------------------------------------------------------|
G|-4-----------------4----------------------------------------------------------------------------|
D|-5-----------------5----------------------------------------------------------------------------|
A|------------------------------------------------------------------------------------------------|
E|------------------------------------------------------------------------------------------------|



MAIN RHYTHM PART II:
Guitar II
e|-0-----------0-----0-----------0-----0-----0-----0-----------0-----0-----------0-----0-----0----|
B|-1-----------1-----1-----------1-----1-----1-----1-----------1-----1-----------1-----1-----1----|
G|-2-----------2-----2-----------2-----2-----2-----2-----------2-----2-----------2-----2-----2----|
D|-3-----------3-----3-----------3-----3-----3-----3-----------3-----3-----------3-----3-----3----|
A|------------------------------------------------------------------------------------------------|
E|------------------------------------------------------------------------------------------------|
+
e|-0-----------0-----0-----------0-----0-----0-----0-----------0-----0-----------0-----0-----0----|
B|-3-----------3-----3-----------3-----3-----3-----3-----------3-----3-----------3-----3-----3----|
G|-4-----------4-----4-----------4-----4-----4-----4-----------4-----4-----------4-----4-----4----|
D|-5-----------5-----5-----------5-----5-----5-----5-----------5-----5-----------5-----5-----5----|
A|------------------------------------------------------------------------------------------------|
E|------------------------------------------------------------------------------------------------|



INTRO:
Guitar I
e|-------------------------0-----------------------------------------------------0----------------|
B|-------------------6-----------6-----------------------------------------------------6----------|
G|-------------5-----------------------5-----------------------------------------------------5----|
D|-7-----------------------------------------7----------------------------------------------------|
A|------------------------------------------------------------------------------------------------|
E|------------------------------------------------------------------------------------------------|
+
e|-------------------------0-----------------------------------------------------0----------------|
B|-------------------8-----------8-----------------------------------------------------8----------|
G|-------------7-----------------------7-----------------------------------------------------7----|
D|-9-----------------------------------------9----------------------------------------------------|
A|------------------------------------------------------------------------------------------------|
E|------------------------------------------------------------------------------------------------|
+
e|-------------------------0-----------------------------------------------------0----------------|
B|-------------------6-----------6-----------------------------------------------------6----------|
G|-------------5-----------------------5-----------------------------------------------------5----|
D|-7-----------------------------------------7----------------------------------------------------|
A|------------------------------------------------------------------------------------------------|
E|------------------------------------------------------------------------------------------------|
+
e|-------------------------0-----------------------------------------------------10---------------|
B|-------------------8-----------8-----------------------------------------------------8----------|
G|-------------7-----------------------7-----------------------------------------------------7----|
D|-9-----------------------------------------9----------------------------------------------------|
A|------------------------------------------------------------------------------------------------|
E|------------------------------------------------------------------------------------------------|



VERSE I:
Guitar I
e|-------------------0-----------------8-----------5-----------------0----------------------------|
B|-------------6-----------6-----------------6-----------6-----------------6----------------------|
G|-------5-----------------------5-----------------------------5-----------------5-----------5----|
D|-7-----------------------------------------------------------------------------------7----------|
A|------------------------------------------------------------------------------------------------|
E|------------------------------------------------------------------------------------------------|
+
e|-------------------0-----------------10----------7-----------------0----------------------------|
B|-------------8-----------8-----------------8-----------8-----------------8----------------------|
G|-------7-----------------------7-----------------------------7-----------------7-----------7----|
D|-9-----------------------------------------------------------------------------------9----------|
A|------------------------------------------------------------------------------------------------|
E|------------------------------------------------------------------------------------------------|
+
e|-------------------0-----------------8-----------5-----------------0----------------------------|
B|-------------6-----------6-----------------6-----------6-----------------6----------------------|
G|-------5-----------------------5-----------------------------5-----------------5-----------5----|
D|-7-----------------------------------------------------------------------------------7----------|
A|------------------------------------------------------------------------------------------------|
E|------------------------------------------------------------------------------------------------|
+
e|-------------------0-----------------10----------7-----------------0----------------------------|
B|-------------8-----------8-----------------8-----------8-----------------8----------------------|
G|-------7-----------------------7-----------------------------7-----------------7-----------7----|
D|-9-----------------------------------------------------------------------------------9----------|
A|------------------------------------------------------------------------------------------------|
E|------------------------------------------------------------------------------------------------|
+
e|-------------------0-----------------------------------------------0----------------------------|
B|-------------1-----------1-----------------------------------1-----------1----------------------|
G|-------2-----------------------2-----------2-----------2-----------------------2-----------2----|
D|-3-----------------------------------3-----------3-----------------------------------3----------|
A|------------------------------------------------------------------------------------------------|
E|------------------------------------------------------------------------------------------------|
+
e|-------------------0-----------------0-----------------0-----------------0----------------------|
B|-------------3-----------3-----------------3-----------------3-----------------3----------------|
G|-------4-----------------------4-----------------4-----------------4-----------------4----------|
D|-5-----------------------------------------------------------------------------------------5----|
A|------------------------------------------------------------------------------------------------|
E|------------------------------------------------------------------------------------------------|
+
e|-------------------0-----------------0-----------------0-----------------0----------------------|
B|-------------1-----------1-----------------1-----------------1-----------------1----------------|
G|-------2-----------------------2-----------------2-----------------2-----------------2----------|
D|-3-----------------------------------------------------------------------------------------3----|
A|------------------------------------------------------------------------------------------------|
E|------------------------------------------------------------------------------------------------|
+
e|-------------------0-----------------0-----------------0-----------------0----------------------|
B|-------------3-----------3-----------------3-----------------3-----------------3----------------|
G|-------4-----------------------4-----------------4-----------------4-----------------4----------|
D|-5-----------------------------------------------------------------------------------------5----|
A|------------------------------------------------------------------------------------------------|
E|------------------------------------------------------------------------------------------------|



CHORUS I:
Guitar I
e|-------------------------------------------------5-----------------0----------------------------|
B|-------------------------------------------------------6-----------------6----------------------|
G|-------------------------------------------------------------5-----------------5-----------5----|
D|-7-----------------7-----------------------------------------------------------------7----------|
A|------------------------------------------------------------------------------------------------|
E|------------------------------------------------------------------------------------------------|
+
e|-------------------------------------------------10----------------7-----------------0----------|
B|-------------------------------------------------------8-----------------8-----------------8----|
G|-------------------------------------------------------------7-----------------7----------------|
D|-9-----------------9----------------------------------------------------------------------------|
A|------------------------------------------------------------------------------------------------|
E|------------------------------------------------------------------------------------------------|
+
e|-------------------------------------------------5-----------------0----------------------------|
B|-------------------------------------------------------6-----------------6----------------------|
G|-------------------------------------------------------------5-----------------5-----------5----|
D|-7-----------------7-----------------------------------------------------------------7----------|
A|------------------------------------------------------------------------------------------------|
E|------------------------------------------------------------------------------------------------|
+
e|-------------------------------------------------10----------------7-----------------0----------|
B|-------------------------------------------------------8-----------------8-----------------8----|
G|-------------------------------------------------------------7-----------------7----------------|
D|-9-----------------9----------------------------------------------------------------------------|
A|------------------------------------------------------------------------------------------------|
E|------------------------------------------------------------------------------------------------|



INTERLUDE I:
Guitar I
e|------------------------------------------------------------------------------------------------|
B|-------------------5-----5-----------------5-----8-----6-----------5----------------------------|
G|-7-----------------------------------------------------------------------------5-----0----------|
D|------------------------------------------------------------------------------------------------|
A|------------------------------------------------------------------------------------------------|
E|------------------------------------------------------------------------------------------------|
+
e|------------------------------------------------------------------------------------------------|
B|-------------------5-----5----------------------------------------------------------------------|
G|-7-----------------------------7-----5-----------0----------------------------------------------|
D|------------------------------------------------------------------------------------------------|
A|------------------------------------------------------------------------------------------------|
E|------------------------------------------------------------------------------------------------|
+
e|------------------------------------------------------------------------------------------------|
B|-------------------5-----5-----------------5-----8-----6-----------5----------------------------|
G|-7-----------------------------------------------------------------------------5-----0----------|
D|------------------------------------------------------------------------------------------------|
A|------------------------------------------------------------------------------------------------|
E|------------------------------------------------------------------------------------------------|
+
e|-5----------------------------------------------------------------------------------------------|
B|-------------------8-----------5----------------------------------------------------------------|
G|-------------------------7-----------5----------------------------------------------------------|
D|-------------------------------------------------7----------------------------------------------|
A|------------------------------------------------------------------------------------------------|
E|------------------------------------------------------------------------------------------------|



VERSE II:
Guitar I
e|-------------------0-----------------8-----------5-----------------0----------------------------|
B|-------------6-----------6-----------------6-----------6-----------------6----------------------|
G|-------5-----------------------5-----------------------------5-----------------5-----------5----|
D|-7-----------------------------------------------------------------------------------7----------|
A|------------------------------------------------------------------------------------------------|
E|------------------------------------------------------------------------------------------------|
+
e|-------------------0-----------------10----------7-----------------0----------------------------|
B|-------------8-----------8-----------------8-----------8-----------------8----------------------|
G|-------7-----------------------7-----------------------------7-----------------7-----------7----|
D|-9-----------------------------------------------------------------------------------9----------|
A|------------------------------------------------------------------------------------------------|
E|------------------------------------------------------------------------------------------------|
+
e|-------------------0-----------------8-----------5-----------------0----------------------------|
B|-------------6-----------6-----------------6-----------6-----------------6----------------------|
G|-------5-----------------------5-----------------------------5-----------------5-----------5----|
D|-7-----------------------------------------------------------------------------------7----------|
A|------------------------------------------------------------------------------------------------|
E|------------------------------------------------------------------------------------------------|
+
e|-------------------0-----------------10----------7-----------------0----------------------------|
B|-------------8-----------8-----------------8-----------8-----------------10---------------------|
G|-------7-----------------------7-----------------------------7-----------------7-----------7----|
D|-9-----------------------------------------------------------------------------------9----------|
A|------------------------------------------------------------------------------------------------|
E|------------------------------------------------------------------------------------------------|
+
e|-------------------0-----------------8-----------5-----------------0----------------------------|
B|-------------6-----------6-----------------6-----------6-----------------6----------------------|
G|-------5-----------------------5-----------------------------5-----------------5-----------5----|
D|-7-----------------------------------------------------------------------------------7----------|
A|------------------------------------------------------------------------------------------------|
E|------------------------------------------------------------------------------------------------|
+
e|-------------------0-----------------10----------7-----------------0----------------------------|
B|-------------8-----------8-----------------8-----------8-----------------8----------------------|
G|-------7-----------------------7-----------------------------7-----------------7-----------7----|
D|-9-----------------------------------------------------------------------------------9----------|
A|------------------------------------------------------------------------------------------------|
E|------------------------------------------------------------------------------------------------|
+
e|-------------------0-----------------8-----------5-----------------0----------------------------|
B|-------------6-----------6-----------------6-----------6-----------------6----------------------|
G|-------5-----------------------5-----------------------------5-----------------5-----------5----|
D|-7-----------------------------------------------------------------------------------7----------|
A|------------------------------------------------------------------------------------------------|
E|------------------------------------------------------------------------------------------------|
+
e|-------------------0-----------------10----------7-----------------0----------------------------|
B|-------------8-----------8-----------------8-----------8-----------------10---------------------|
G|-------7-----------------------7-----------------------------7-----------------7-----------7----|
D|-9-----------------------------------------------------------------------------------9----------|
A|------------------------------------------------------------------------------------------------|
E|------------------------------------------------------------------------------------------------|



CHORUS II:
Guitar I
e|------------------------------------------------------------------------------------------------|
B|------------------------------------------------------------------------------------------------|
G|-------------------------------------------------------5----------------------------------------|
D|-7-----------7-----7-----7-----------7-----7-----7-----------7-----7-----------7-----7-----7----|
A|------------------------------------------------------------------------------------------------|
E|------------------------------------------------------------------------------------------------|
+
e|------------------------------------------------------------------------------------------------|
B|------------------------------------------------------------------------------------------------|
G|------------------------------------------------------------------------------------------------|
D|-7-----------5-----------5----------------------------------------------------------------------|
A|-------------------7-----------7-----6-----5-----------------------------------5-----5-----5----|
E|------------------------------------------------------------------------------------------------|
+
e|------------------------------------------------------------------------------------------------|
B|------------------------------------------------------------------------------------------------|
G|-------------------------------------------------------5----------------------------------------|
D|-7-----------7-----7-----7-----------7-----7-----7-----------7-----7-----------7-----7-----7----|
A|------------------------------------------------------------------------------------------------|
E|------------------------------------------------------------------------------------------------|
+
e|------------------------------------------------------------------------------------------------|
B|------------------------------------------------------------------------------------------------|
G|------------------------------------------------------------------------------------------------|
D|-7-----------5-----------5-----------------------------------------------------0-----0-----0----|
A|-------------------7-----------7-----6-----5----------------------------------------------------|
E|------------------------------------------------------------------------------------------------|



INTERLUDE II:
Guitar I
e|-0-----------0-----------0-----------0-----------0-----------------0-----------------0----------|
B|-------3-----------3-----------3-----------3-----------3-----------------3-----------------3----|
G|-------------------------------------------------------------2-----------------2----------------|
D|------------------------------------------------------------------------------------------------|
A|------------------------------------------------------------------------------------------------|
E|------------------------------------------------------------------------------------------------|
+
e|-0----------------------------------------------------------------------------------------------|
B|-------------3-----------3----------------------------------------------------------------------|
G|-------------------4-----------4-----3-----2-----------------------------------2-----2-----2----|
D|------------------------------------------------------------------------------------------------|
A|------------------------------------------------------------------------------------------------|
E|------------------------------------------------------------------------------------------------|
+
e|-0-----------0-----------0-----------0-----------0-----------------0-----------------0----------|
B|-------3-----------3-----------3-----------3-----------3-----------------3-----------------3----|
G|-------------------------------------------------------------2-----------------2----------------|
D|------------------------------------------------------------------------------------------------|
A|------------------------------------------------------------------------------------------------|
E|------------------------------------------------------------------------------------------------|
+
e|-0----------------------------------------------------------------------------------------------|
B|-------------3-----------3----------------------------------------------------------------------|
G|-------------------4-----------4-----3-----2-----------------------------------2-----2-----2----|
D|------------------------------------------------------------------------------------------------|
A|------------------------------------------------------------------------------------------------|
E|------------------------------------------------------------------------------------------------|



VERSE III:
Guitar I
e|------------------------------------------------------------------------------------------------|
B|------------------------------------------------------------------------------------------------|
G|-------------------------------------------------------5----------------------------------------|
D|-7-----------7-----7-----7-----------7-----7-----7-----------7-----7-----------7-----7-----7----|
A|------------------------------------------------------------------------------------------------|
E|------------------------------------------------------------------------------------------------|
+
e|------------------------------------------------------------------------------------------------|
B|------------------------------------------------------------------------------------------------|
G|------------------------------------------------------------------------------------------------|
D|-7-----------5-----------5----------------------------------------------------------------------|
A|-------------------7-----------7-----6-----5-----------------------------------5-----5-----5----|
E|------------------------------------------------------------------------------------------------|
+
e|------------------------------------------------------------------------------------------------|
B|------------------------------------------------------------------------------------------------|
G|-------------------------------------------------------5----------------------------------------|
D|-7-----------7-----7-----7-----------7-----7-----7-----------7-----7-----------7-----7-----7----|
A|------------------------------------------------------------------------------------------------|
E|------------------------------------------------------------------------------------------------|
+
e|------------------------------------------------------------------------------------------------|
B|------------------------------------------------------------------------------------------------|
G|------------------------------------------------------------------------------------------------|
D|-7-----------5-----------5----------------------------------------------------------------------|
A|-------------------7-----------7-----6-----5-----------------------------------5-----5-----5----|
E|------------------------------------------------------------------------------------------------|
+
e|-------------------0-----------------8-----------5-----------------0----------------------------|
B|-------------6-----------6-----------------6-----------6-----------------6----------------------|
G|-------5-----------------------5-----------------------------5-----------------5-----------5----|
D|-7-----------------------------------------------------------------------------------7----------|
A|------------------------------------------------------------------------------------------------|
E|------------------------------------------------------------------------------------------------|
+
e|-------------------0-----------------10----------7-----------------0----------------------------|
B|-------------8-----------8-----------------8-----------8-----------------8----------------------|
G|-------7-----------------------7-----------------------------7-----------------7-----------7----|
D|-9-----------------------------------------------------------------------------------9----------|
A|------------------------------------------------------------------------------------------------|
E|------------------------------------------------------------------------------------------------|
+
e|-------------------0-----------------8-----------5-----------------0----------------------------|
B|-------------6-----------6-----------------6-----------6-----------------6----------------------|
G|-------5-----------------------5-----------------------------5-----------------5-----------5----|
D|-7-----------------------------------------------------------------------------------7----------|
A|------------------------------------------------------------------------------------------------|
E|------------------------------------------------------------------------------------------------|
+
e|-------------------0-----------------10----------7-----------------0----------------------------|
B|-------------8-----------8-----------------8-----------8-----------------10---------------------|
G|-------7-----------------------7-----------------------------7-----------------7-----------7----|
D|-9-----------------------------------------------------------------------------------9----------|
A|------------------------------------------------------------------------------------------------|
E|------------------------------------------------------------------------------------------------|
+
e|-------------------0-----------------8-----------5-----------------0----------------------------|
B|-------------6-----------6-----------------6-----------6-----------------6----------------------|
G|-------5-----------------------5-----------------------------5-----------------5-----------5----|
D|-7-----------------------------------------------------------------------------------7----------|
A|------------------------------------------------------------------------------------------------|
E|------------------------------------------------------------------------------------------------|
+
e|-------------------0-----------------10----------7-----------------0----------------------------|
B|-------------8-----------8-----------------8-----------8-----------------8----------------------|
G|-------7-----------------------7-----------------------------7-----------------7-----------7----|
D|-9-----------------------------------------------------------------------------------9----------|
A|------------------------------------------------------------------------------------------------|
E|------------------------------------------------------------------------------------------------|



OUTRO:
Guitar I
e|-------------------0-----------------------------------------------0----------------------------||
B|-------------1-----------1-----------------------------------1-----------1----------------------||
G|-------2-----------------------2-----------2-----------2-----------------------2-----------2----|| x 4
D|-3-----------------------------------3-----------3-----------------------------------3----------||
A|------------------------------------------------------------------------------------------------||
E|------------------------------------------------------------------------------------------------||
+
e|----0-------------------------------------------------------------------------------------------|
B|---1--------------------------------------------------------------------------------------------|
G|--0---------------------------------------------------------------------------------------------|
D|-3----------------------------------------------------------------------------------------------|
A|------------------------------------------------------------------------------------------------|
E|------------------------------------------------------------------------------------------------|



SONG STRUCTURE:

Guitar I
INTRO
VERSE I
CHORUS I
INTERLUDE I
VERSE II
CHORUS II
INTERLUDE II
VERSE III
OUTRO

Guitar II
RHYTHM PART I x 2
RHYTHM PART II x 8
RHYTHM PART I x 4
RHYTHM PART II x 12
RHYTHM PART I x 4
RHYTHM PART II x 18



That's it. Please leave comments or suggestions, corrections, requests, etc.
Cheers!
-Bennyshambles78-



            
            
Suggest correction
Creating personal tab
Creating personal tab
You can edit any tab online and save it as your Personal.

You can edit, replace or remove any tab part or add personal notes – all changes will be seen only by you.

Personal tabs can be accessed anytime from any device, even offline.
Learn more »
Give kudos to tab author, rate the tab!
1 2 3 4 5
comments
print report bad tab
guest
You may want to rate the tab now too:
select rating
Wanna post a correction for this tab? Suggest correction