Oops, an error
Loading. Please wait.

From Roses tab

version 2
version 2

Whole song

by Fences
3,460 views 6 this week
1 commentread comment
1 2 3 4 5
x 5
add to favorites
×
Save as Personal and add changes to this tab that will be seen only by you. Learn more ›
×
You can save this tab as Personal to edit and correct it or add notes. All changes will be seen only by you. Learn more »
launch autoscroll
font size
0
reset
how to read this tab
guitar tuner
edit
Autoscroll
slow
fast
+/-
esc
set tempo
stop
Author
Difficulty
Fences - From Roses

Standard Tuning
EADGBe

For video reference:
http://www.youtube.com/watch?v=t245XIcVxTw

INTRO/VERSE
e|---0--0-----------0---------------------------|
B|---1--1-----------1---------------------------|
G|---2--2-----------0---------------------------|
D|---2--2-----0--2--0---------------------------|
A|---------3--------2---------------------------|
E|------1-----------3---------------------------|

On the second chord for the intro/verse I would recommend using your thumb on the E 
string, just to make it easier on your hand.
Also, for the appregio type thing I would put my fingers in a placement of the C chord.
There is also a hammer on/pull off somewhere after the second chord.

CHORUS
e|---0--0--0------------------------------------|
B|---1--1--1------------------------------------|
G|---2--2--0------------------------------------|
D|---3--2--0------------------------------------|
A|---------2------------------------------------|
E|---------3------------------------------------|

And that's basically the entire song, enjoy!

            
            
Suggest correction
Creating personal tab
Creating personal tab
You can edit any tab online and save it as your Personal.

You can edit, replace or remove any tab part or add personal notes – all changes will be seen only by you.

Personal tabs can be accessed anytime from any device, even offline.
Learn more »
comments
print report bad tab
1 comment total.
0 reply
wagner573 10 Jun 04, 2014 07:10 PM

In the Intro/Verse it should go A minor to a C major. Then it should go like this.

e----------------0--
B----------------1--
G----------------0--
D|------0--2--0--0--
A|--3------------2--
E----------------3--

Other than that this tab is perfect! 4/5

guest
You may want to rate the tab now too:
select rating
Wanna post a correction for this tab? Suggest correction