Oops, an error
Loading. Please wait.

El Anillo chords

version 2
version 2

Whole song

18 views 1 this week
no commentswrite comment
1 2 3 4 5
3 more votes to show rating
add to favorites
×
Save as Personal and add changes to this tab that will be seen only by you. Learn more ›
×
You can save this tab as Personal to edit and correct it or add notes. All changes will be seen only by you. Learn more »
launch autoscroll
font size
0
reset
transpose
0
reset
display chords
guitar tuner
edit
Autoscroll
slow
fast
+/-
esc
set tempo
stop
Strumming
There is no strumming pattern for this song yet. and get +5 IQ
Intro:

E||--9---14-9-9/12--9---17/19--17-12--10/9----------------------------------------||
B||----------------------------------------10-10--12-13/12/10---12/10-10/14-------||
G||-------------------------------------------------------------------------------||
D||-------------------------------------------------------------------------------||
A||-------------------------------------------------------------------------------||
E||-------------------------------------------------------------------------------||

A                       C#m
Hoy por primera vez brillo mi sol

           Bm                          E
Hoy su calor me traspaso de lado a lado.

A                     C#m
Y me desnudo por completo

             Bm                          E
Hoy me di cuenta de que tengo entre mis manos.

A                           C#m
El anillo mas caro, el que mas luces tiene.

        F                         E
El que hace que las mascaras se caigan.

        A                        C#m
Yo necesito de alguien que me enseñe como es,

          F                           E
Y que le ponga alma a la cara que imagino.


Hoy voy a pedir una ronda mas
Y que todos beban por nosotro dos.
No todos los dìas se puede sentir
Que la vida nos inunda por vivir.

Es que estan apareciendo nuevos signos del amor
Una caja de sorpresas que se abre.
No esperemos ni un dìa que puede ser para siempre
Y ademàs que la tercera es la vencida.

Estribillo:

G        D             A               F#             Bm
Uniendo los extremos descubri que el tiempo está de nuestro lado

    F      E         A
Vayamos adonde vayamos.

G            D              A              F#            Bm
No hay nada que pueda impedir que demos vuelta la hoja del pasado

            F          E       A
Y que lleguemos a lo que soñamos.


Una vez pense que vivir sin fe
Era parte de las reglas de la vida.
Y que ya no iba a ser como imagine
Yo ya dabba por perdida la partida.

Pero hay una llave que puede abrir la puerta
Que me deje acercarme a mi destino.
O el dolor que te enseña, o el amor que te llega
Y te envuelve como un canto de sirena

(Se repite el estribillo)


E||--9--14-9-9/12--9-----------------------||
B||-------------------10/12~~~ /10---------||
G||--------------------------------9-------|| (Y termina con un A)
D||----------------------------------------||
A||----------------------------------------||
E||----------------------------------------||


Bueno, para mi que es asi, que se yo... despues diganme che como seria.
OK, saludos a los fanaticos de Fenna y si alguien saca mejor este tema
pasemelo plis ke esta muy bueno. Thanx!!!
Suggest correction
Creating personal tab
Creating personal tab
You can edit any tab online and save it as your Personal.

You can edit, replace or remove any tab part or add personal notes – all changes will be seen only by you.

Personal tabs can be accessed anytime from any device, even offline.
Learn more »
Give kudos to tab author, rate the tab!
1 2 3 4 5
comments
print report bad tab
guest
Wanna post a correction for this tab? Suggest correction