Oops, an error
Loading. Please wait.

El Beach Boy tab

version 3
version 3

Whole song

68 views 3 this week
no commentswrite comment
1 2 3 4 5
3 more votes to show rating
add to favorites
×
Save as Personal and add changes to this tab that will be seen only by you. Learn more ›
×
You can save this tab as Personal to edit and correct it or add notes. All changes will be seen only by you. Learn more »
launch autoscroll
font size
0
reset
how to read this tab
guitar tuner
edit
Autoscroll
slow
fast
+/-
esc
set tempo
stop
esta es mi primer rola que me saco,
asi que no se burlen si no les suena,
pero ponganse sus mascaras y a surfear.

¡¡¡¡¡¡que viva el surfffffffffffffffffffffffffff...!!!

INTRO:

e:----------------------------------------------
B:----------------------------------------------
G:----------------------------------------------
D:-0--3-4-5-5-3-3-5-5-3--0--3-4-5-5-3-3-5-5-3---  X2
A:----------------------------------------------
E:----------------------------------------------

e:----------------------------------------------
B:----------------------------------------------
G:----------------------------------------------
D:-0--3-4-5-5-3-3-5-5-3--0--3-4-5-5-3-3-5-5-3---
A:----------------------------------------------
E:----------------------------------------------
   todos los dias me dicen....
e:----------------------------------------------
B:----------------------------------------------
G:-0--3-4-5-5-3-3-5-5-3-------------------------
D:-----------------------0--3-4-5-5-3-3-5-5-3---
A:----------------------------------------------
E:----------------------------------------------

e:----------------------------------------------
B:----------------------------------------------
G:-0---3-4--7---5--3----------------------------
D:----------7---5--3-----5----------------------
A:----------5---3--1-----5----------------------
E:-----------------------3----------------------
  yo quiero ser un beach boy

e:----------------------------------------------
B:----------------------------------------------
G:-5--5--5---7----------------------7--7--7---5-
D:-5--5--5---7----------------------7--7--7---5-
A:-3--3--3---5----------------------5--5--5---3-
E:----------------------------------------------
  no quiero ser: wey de traje cafe, sapatos boleadosportefolio de piel.

e:----------------------------------------------
B:----------------------------------------------
G:-5--5--5---7----------------------7--7--7---5-
D:-5--5--5---7----------------------7--7--7---5-
A:-3--3--3---5----------------------5--5--5---3-
E:----------------------------------------------
  no quiero ser: tacones con... , trabajo al decierto pagando horas extra.

e:-------------------------------------
B:-------------------------------------
G:-7---5--3----------------------------
D:-7---5--3-----5----------------------
A:-5---3--1-----5----------------------
E:--------------3----------------------
  ser un beach boy

____________(el solo aun no me lo saco pero va aqui)________

luego todo se repite exepto el intro:

y la letra esta aqui:

todos los dias me dicen que tengo que hacer
y la roapa bonita que me tengo que poner
no me importa la ecuela, el trabajo, profeción
yo quiero ir a la playa mi unica preocupación
yo quiero ser un beach boy.

y mi papa me dijo yo no te voy a mantener
consiguete un trabajo una buena mujer
yo no quiero casarme, no me quiero amarrar
yo todavia me siento en plena pubertad
yo quiero ser un beach boy.

no quiero ser:
wey de traje cafe
sapatos boleados
portafolios de piel

no quiero ser:
tacones, con mis medias discretas,
trabajo al decieto pagando horas extra
ser un beach boy

(Y DE NUEVO TODO OTRAVEZ)
------------------------------------------------------------
se despide de ustedes el bygonmask (jorge raymundo napoles).
saludos a toda la banda malandra de CHAPINGO
y tambien a esos de fenomenos  fuzz.

            
            
Suggest correction
Creating personal tab
Creating personal tab
You can edit any tab online and save it as your Personal.

You can edit, replace or remove any tab part or add personal notes – all changes will be seen only by you.

Personal tabs can be accessed anytime from any device, even offline.
Learn more »
Give kudos to tab author, rate the tab!
1 2 3 4 5
comments
print report bad tab
guest
Wanna post a correction for this tab? Suggest correction