Oops, an error
Loading. Please wait.

El Beach Boy tab

version 4
version 4

Whole song

22 views 1 this week
no commentswrite comment
1 2 3 4 5
3 more votes to show rating
add to favorites
×
Save as Personal and add changes to this tab that will be seen only by you. Learn more ›
×
You can save this tab as Personal to edit and correct it or add notes. All changes will be seen only by you. Learn more »
launch autoscroll
font size
0
reset
how to read this tab
guitar tuner
edit
Autoscroll
slow
fast
+/-
esc
set tempo
stop
Intro
e|-------------------------------------------|
B|-------------------------------------------|
G|-------------------------------------------|
D|-------------------------------------------|
A|-------5-5-3---5-5-3--0-3-4-5-5-3---5-5-3--|
E|-------------------------------------------|

e|---------------------------------------------------|
B|---------------------------------------------------|
G|---------------------------------------------------|
D|--------------------------------------5/7-7777777--|
A|-0-3-4-5-5-3---5-5-3--0-3-4-5-5-3---5--------------|
E|---------------------------------------------------|


  Todos los dias me dicen que tengo que hacer
  Y la ropa bonita que me tengo que poner
e|-------------------------------------------|
B|-------------------------------------------|
G|-------------------------------------------|
D|-------------------------------------------|
A|-0-3-4-5-5-3---5-5-3--0-3-4-5-5-3---5-5-3--|
E|-------------------------------------------|

  No me importa la ecuela, el trabajo, profeción
  Yo quiero ir a la playa mi unica preocupación
e|-------------------------------------------|
B|-------------------------------------------|
G|-------------------------------------------|
D|-0-3-4-5-5-3---5-5-3-----------------------|
A|----------------------0-3-4-5-5-3---5-5-3--|
E|-------------------------------------------|

  Yo quiero ser un beach boy.
e|-------------------------|
B|-------------------------|
G|-------9--9-7----5----2--|
D|-------9--9-7----5----2--|
A|-0-3-5-7--7-5----3----0--|
E|-------------------------|


  Y mi papa me dijo yo no te voy a mantener
  Consiguete un trabajo una buena mujer
e|-------------------------------------------|
B|-------------------------------------------|
G|-------------------------------------------|
D|-------------------------------------------|
A|-------5-5-3---5-5-3--0-3-4-5-5-3---5-5-3--|
E|-------------------------------------------|

  Guitarra 2
e|-------2~--------------------2~------------|
B|-------3~--------------------3~------------|
G|-------2~--------------------2~------------|
D|-------0~--------------------0~------------|
A|-------0~--------------------0~------------|
E|-------------------------------------------|

  Yo no quiero casarme, no me quiero amarrar
  Yo todavia me siento en plena pubertad
e|-------------------------------------------|
B|-------------------------------------------|
G|-------------------------------------------|
D|-0-3-4-5-5-3---5-5-3-----------------------|
A|----------------------0-3-4-5-5-3---5-5-3--|
E|-------------------------------------------|

  Guitarra 2
e|-------3~---------------------2~-----------|
B|-------3~---------------------3~-----------|
G|-------0~---------------------2~-----------|
D|-------0~---------------------0~-----------|
A|-------2~---------------------0~-----------|
E|-------3~----------------------------------|

  Yo quiero ser un beach boy.
e|-------------------------|
B|-------------------------|
G|-------9--9-7----5----2--|
D|-------9--9-7----5----2--|
A|-0-3-5-7--7-5----3----0--|
E|-------------------------|


  No quiero ser: Wey de traje cafe
  Zapato boleado portafolios de piel
e|------------------------|
B|------------------------|
G|--5-5-5-2------5-5-5-2--|
D|--5-5-5-2------5-5-5-2--|
A|--3-3-3-0------3-3-3-0--|
E|------------------------|

  No quiero ser: tacones, con mis medias discretas,
  Trabajo al decieto pagando horas extra
e|------------------------|
B|------------------------|
G|--7-7-7-10-----5-5-5-2--|
D|--7-7-7-10-----5-5-5-2--|
A|--5-5-5-8------3-3-3-0--|
E|------------------------|

  Ser un beach boy
e|--------------------|
B|--------------------|
G|--9--9-7----5----2--|
D|--9--9-7----5----2--|
A|--7--7-5----3----0--|
E|--------------------|


SOLO


  Todos los dias me dicen que tengo que hacer
  Y la ropa bonita que me tengo que poner
e|-------------------------------------------|
B|-------------------------------------------|
G|-------------------------------------------|
D|-------------------------------------------|
A|-------5-5-3---5-5-3--0-3-4-5-5-3---5-5-3--|
E|-------------------------------------------|

  No me importa la ecuela, el trabajo, profeción
  Yo quiero ir a la playa mi unica preocupación
e|-------------------------------------------|
B|-------------------------------------------|
G|-------------------------------------------|
D|-0-3-4-5-5-3---5-5-3-----------------------|
A|----------------------0-3-4-5-5-3---5-5-3--|
E|-------------------------------------------|

  Yo quiero ser un beach boy
e|-------------------------|
B|-------------------------|
G|-------9--9-7----5----2--|
D|-------9--9-7----5----2--|
A|-0-3-5-7--7-5----3----0--|
E|-------------------------|


  Y mi papa me dijo yo no te voy a mantener
  Consiguete un trabajo una buena mujer
e|-------------------------------------------|
B|-------------------------------------------|
G|-------------------------------------------|
D|-------------------------------------------|
A|-------5-5-3---5-5-3--0-3-4-5-5-3---5-5-3--|
E|-------------------------------------------|

  Guitarra 2
e|-------2~--------------------2~------------|
B|-------3~--------------------3~------------|
G|-------2~--------------------2~------------|
D|-------0~--------------------0~------------|
A|-------0~--------------------0~------------|
E|-------------------------------------------|

  Yo no quiero casarme, no me quiero amarrar
  Yo todavia me siento en plena pubertad
e|-------------------------------------------|
B|-------------------------------------------|
G|-------------------------------------------|
D|-0-3-4-5-5-3---5-5-3-----------------------|
A|----------------------0-3-4-5-5-3---5-5-3--|
E|-------------------------------------------|

  Guitarra 2
e|-------3~---------------------2~-----------|
B|-------3~---------------------3~-----------|
G|-------0~---------------------2~-----------|
D|-------0~---------------------0~-----------|
A|-------2~---------------------0~-----------|
E|-------3~----------------------------------|

Yo quiero ser un beach boy.
e|-------------------------|
B|-------------------------|
G|-------9--9-7----5----2--|
D|-------9--9-7----5----2--|
A|-0-3-5-7--7-5----3----0--|
E|-------------------------|


No quiero ser: Wey de traje cafe
Zapato boleado portafolios de piel
e|------------------------|
B|------------------------|
G|--5-5-5-2------5-5-5-2--|
D|--5-5-5-2------5-5-5-2--|
A|--3-3-3-0------3-3-3-0--|
E|------------------------|

No quiero ser: tacones, con mis medias discretas,
trabajo al decieto pagando horas extra
e|------------------------|
B|------------------------|
G|--7-7-7-10-----5-5-5-2--|
D|--7-7-7-10-----5-5-5-2--|
A|--5-5-5-8------3-3-3-0--|
E|------------------------|

Ser un beach boy
e|--------------------|
B|--------------------|
G|--9--9-7----5----2--|
D|--9--9-7----5----2--|
A|--7--7-5----3----0--|
E|--------------------|

Yo quiero ser un beach boy
e|--------------------|
B|--------------------|
G|--9--9-7----5----2--|
D|--9--9-7----5----2--|
A|--7--7-5----3----0--|
E|--------------------|

Ser un beach boy
e|--------------------|
B|--------------------|
G|--9--9-7----5----2--|
D|--9--9-7----5----2--|
A|--7--7-5----3----0--|
E|--------------------|

e|------------------------0~-|
B|------------------------2~-|
G|--99999999-777-5-7-5----2~-|
D|--99999999-777-5-7-5----2~-|
A|--77777777-555-3-5-3----0~-|
E|---------------------------|

Dedicada para todos mis amigos
En especial a mi banda
Hay q seguir echandole ganas
Atte: Jay Sánchez

            
            
Suggest correction
Creating personal tab
Creating personal tab
You can edit any tab online and save it as your Personal.

You can edit, replace or remove any tab part or add personal notes – all changes will be seen only by you.

Personal tabs can be accessed anytime from any device, even offline.
Learn more »
Give kudos to tab author, rate the tab!
1 2 3 4 5
comments
print report bad tab
guest
Wanna post a correction for this tab? Suggest correction