Oops, an error
Loading. Please wait.

Pisando Fuerte tab

version 1
version 1

Whole song

47 views 3 this week
no commentswrite comment
1 2 3 4 5
3 more votes to show rating
add to favorites
×
Save as Personal and add changes to this tab that will be seen only by you. Learn more ›
×
You can save this tab as Personal to edit and correct it or add notes. All changes will be seen only by you. Learn more »
launch autoscroll
font size
0
reset
how to read this tab
guitar tuner
edit
Autoscroll
slow
fast
+/-
esc
set tempo
stop
Bueno loko Ak estoy subiendo este temón de la banda fenotipo
compuesto por francisco Pieri

Referencias utilizadas en esta tablatura:

= slide
X= palm mute
~= vibrato

La canción comienza con una guitarra acoplando

INTRO:

        LAm              REm     SOL           LAm
e||---------------|-------|------------|---------------
B||-5-5-5-8-5-8-5-|-------|------------|---------------
G||---------------|-7-5-4-|7-5-4--4-5-4|5--4-2--2-4-5--
D||---------------|-------|------------|---------------
A||---------------|-------|------------|---------------
E||---------------|-------|------------|---------------

     LAm          REm       SOL       LAm
e--------------|--------|-----------|-----------------
B-5-5-5-8-5-8-5|--------|-----------|------------------
G--------------|--7-5-4-|7-5-4-4-5-4|5-4-2-x-x-2-x-x-2-
D--------------|--------|-----------|------------------
A--------------|--------|-----------|------------------
E--------------|--------|-----------|------------------


Las primeras estrofas se tocan con un estilo de reggae


LAm         FA 
 Hace tiempo, siento un silencio,
DO                 SOL            Arreglos primer viola:
 Bien hondo bien adentro
                                   e||-7/8-7-7-7/8/7/5-
                                   B||-----------------
                                   G||-----------------
                                   D||-----------------
                                   A||-----------------
                                   E||-----------------

LAm           FA 
 Tanta euforia, ya es historia
DO                 SOL 
 Se aleja con el viento.  e||-/15-15-13-12-------------
                          B||--------------15-13-------
                          G||--------------------14----
                          D||--------------------------
                          A||--------------------------
                          E||--------------------------

FA                   DO 
 Y estoy buscando una explicación
REm                    SOL 
 No está en tus sentimientos   e||-/12/10/8~~----------
                               B||---------------------
                               G||---------------------
                               D||---------------------
                               A||---------------------
                               E||---------------------


FA               DO 
 Paisaje que la luz abandonó, e||----------
                              B||-10/12-10-


REm               MI 
 Así me siento yo      e||-15-13-12----------------------
                       B||----------15-13-12-------------
                       G||--------------------14-12------
                       D||--------------------------14~~-
                       A||-------------------------------
                       E||-------------------------------


ESTRIBILLO:

                 LAm                      REm
 Y mientras te agarro, te cuelgo en mis brazos
             SOL                 LAm
 Mi alma de barro, se parte en pedazos
                                    REm
 Tengo que alejarme, dejarte a tu suerte
                SOL 
 Y empezar de nuevo, pisando fuerte

INTRO


LAm          FA 
 Seco y débil, la noche me miro,
DO               SOL 
 La brisa me mordía       e||--10-8-7------------
                          B||---------10-8-8/10--
                          G||--------------------
                          D||--------------------
                          A||--------------------
                          E||--------------------


LAm          FA 
 Ya no era viento, era sólo vapor
DO               SOL 
 Sin sed ni sensación      e||-12--------  (creo que toca los
                           B||----12-10--   armónicos naturales)
                           G||-----------
                           D||-----------
                           A||-----------
                           E||-----------


FA                   DO 
 Y estoy buscando una explicación  e||----------------
                                   B||-10-10-10-10/12-

REm                    SOL 
 No está en tus sentimientos   e||-10-12-10----10/8-
                               B||----------12------
                               G||------------------

FA               DO 
 Paisaje que la luz abandonó, e||----8-10-8-
                              B||-10--------
REm               MI 
 Así me siento yo

 ESTRIBILLO

INTRO

           (esta parte va sin guitarra rítmica)

 Los días pasan, la luna cambia

 Ya no me habla de ti   e||-8/7/5---
                        B||---------


 Lo único cierto, es el desierto

 ¿En qué me convertí?     e||-15-15-15-13-12-------
                          B||----------------------
                          G||----------------12/14-
                          D||----------------------


FA                   DO             (casi ni se escucha)
 Y estoy buscando una explicación
                                    e||----------------
                                    B||-10-10-10-10/12-

REm                    SOL 
 No está en tus sentimientos   e||-10-12-10----10/8-
                               B||----------12------
                               G||------------------

FA               DO 
 Paisaje que la luz abandonó, e||----8-10-8-10--
                              B||-10------------

REm               MI 
 Así me siento yo      e||-15-13-12----------------------
                       B||----------15-13-12-------------
                       G||--------------------14-12------
                       D||--------------------------14~~-
                       A||-------------------------------
                       E||-------------------------------


              LAm                 REm
 Y miro esas fotos, y siento un abismo,
                  SOL                   LAm
 ¿será que es en serió?, que no soy el mismo
                                  REm
 Y mientras camino y asumo esta muerte,
                SOL 
 Y empiezo de nuevo, PISANDO FUEERTE!!!

Lalala lalalalailailailailai...


SECUENCIA FINAL:

   LAm           REm     SOL            LAm
e---------------|------|-------------|--------------
B-5-5-5-8-5-8-5-|------|-------------|--------------
G---------------|7-5-4-|7-5-4--4-5-4-|-5-4-2-2-4-5--
D---------------|------|-------------|--------------
A---------------|------|-------------|--------------
E---------------|------|-------------|--------------

        LAm       REm            SOL            LAm
e---------5-----|--------------|--5-------|----------------
B-5-5-5-8---8-5-|--------------|-8--8-5---|-5--------------
G---------------|7-5-4--5-4-5-7|--------7-|--5-x-x-4-x-x-2-
D---------------|--------------|----------|----------------
A---------------|--------------|----------|----------------
E---------------|--------------|----------|----------------


Un saludo pal Francisco, pa toda la gent de del seminario, 1D
y la banda de la impera aguant fenotipo loko!!!!!!!

            
            
Suggest correction
Creating personal tab
Creating personal tab
You can edit any tab online and save it as your Personal.

You can edit, replace or remove any tab part or add personal notes – all changes will be seen only by you.

Personal tabs can be accessed anytime from any device, even offline.
Learn more »
Give kudos to tab author, rate the tab!
1 2 3 4 5
comments
print report bad tab
guest
Wanna post a correction for this tab? Suggest correction