Oops, an error
Loading. Please wait.

Country Dance Tab

8,534 views 15 this week
1 commentread comment
1 2 3 4 5
excellent!
x 5
add to favorites
launch autoscroll
font size
0
reset
how to read this tab
guitar tuner
Autoscroll
slow
fast
+/-
esc
set tempo
stop
Help us to improve Ultimate-Guitar.com Take our survey!
×
Author
Difficulty
novice
Ferdinando Carulli - Country Dance


if you're a beginning classical guitarist, this piece is perfect for you.
enjoy

                                                    
e||--------------|--------------|--------------|--------------|--------------|
B||--0-----0-----|--1-----1-----|--0-----1--0--|--------3-----|--0-----0-----|
G||--0-----0-----|--2-----2-----|--0-----------|--2-----2-----|--0-----0-----|
D||-----0-----0--|-----0-----0--|-----0--------|-----0-----0--|-----0-----0--|
A||--------------|--------------|--------------|--------------|--------------|
E||--------------|--------------|--------------|--------------|--------------|
                                                       
--------------|--------------|-----------|--------------|--------------|
--1-----1-----|--0-----1-----|-----------|--0-----0-----|--1-----1-----|
--2-----2-----|--0--------2--|--0--------|--0-----0-----|--2-----2-----|
-----0-----0--|-----0--------|-----------|-----0-----0--|-----0-----0--|
--------------|--------------|-----------|--------------|--------------|
--------------|--------------|--3--------|--------------|--------------|
                                                     
--------------|--------------|--------------|--------------|--------------|
--0-----1--0--|--------3-----|--0-----0-----|--1-----1-----|--0-----1-----|
--0-----------|--2-----2-----|--0-----0-----|--2-----2-----|--0--------2--|
-----0--------|-----0-----0--|-----0-----0--|-----0-----0--|-----0--------|
--------------|--------------|--------------|--------------|--------------|
--------------|--------------|--------------|--------------|--------------|
                                                       
-----------|--2-----2-----|--3-----------|--------0-----|--------------|
-----------|--1-----1-----|--0-----0-----|--1--------3--|--0-----------|
--0--------|--------------|--------0-----|--2-----------|--------0-----|
-----------|-----0-----0--|-----0-----0--|-----0--------|-----0-----0--|
-----------|--------------|--------------|--------------|--------------|
--3--------|--------------|--------------|--------------|--------------|
                                                       
--2-----2-----|--3-----------|--------0-----|-----------|--2-----2-----|
--1-----1-----|--0-----0-----|--1--------3--|--0--------|--1-----1-----|
--------------|--------0-----|--2-----------|-----------|--------------|
-----0-----0--|-----0-----0--|-----0--------|-----------|-----0-----0--|
--------------|--------------|--------------|-----------|--------------|
--------------|--------------|--------------|--3--------|--------------|
                                                       
--3-----------|--------0-----|--------------|--2-----2-----|--3-----------|
--0-----0-----|--1--------3--|--0-----------|--1-----1-----|--0-----0-----|
--------0-----|--2-----------|--------0-----|--------------|--------0-----|
-----0-----0--|-----0--------|-----0-----0--|-----0-----0--|-----0-----0--|
--------------|--------------|--------------|--------------|--------------|
--------------|--------------|--------------|--------------|--------------|
                                                       
--------0-----|-----------|-----------0--|-----------0--|-----2-----2--|
--1--------3--|--0--------|--------0-----|--------0-----|-----0-----0--|
--2-----------|-----------|-----0--------|-----0--------|--------------|
-----0--------|-----------|--2-----------|--2-----------|--1-----1-----|
--------------|-----------|--------------|--------------|--------------|
--------------|--3--------|--------------|--------------|--------------|
                                                       
-----3-----0--|--------------|--------------|-----2-----2--|--0--------|
-----0-----0--|-----0-----0--|-----0-----0--|-----0-----0--|-----------|
--------------|--2-----2-----|--0-----------|--------------|-----------|
--2-----2-----|--------------|--------2-----|--1-----1-----|--2--------|
--------------|--------------|--------------|--------------|-----------|
--------------|--------------|--------------|--------------|-----------|
                                                       
-----------0--|-----------0--|-----2-----2--|-----3-----0--|--------------|
--------0-----|--------0-----|-----0-----0--|-----0-----0--|-----0-----0--|
-----0--------|-----0--------|--------------|--------------|--2-----2-----|
--2-----------|--2-----------|--1-----1-----|--2-----2-----|--------------|
--------------|--------------|--------------|--------------|--------------|
--------------|--------------|--------------|--------------|--------------|
                                                       
--------------|-----2-----2--|--0--------|--------------|--------------|
-----0-----0--|-----0-----0--|-----------|--0-----0-----|--1-----1-----|
--0-----------|--------------|-----------|--0-----0-----|--2-----2-----|
--------2-----|--1-----1-----|--2--------|-----0-----0--|-----0-----0--|
--------------|--------------|-----------|--------------|--------------|
--------------|--------------|-----------|--------------|--------------|
                                                       
--------------|--------------|--------------|--------------|--------------|
--0-----1--0--|--------3-----|--0-----0-----|--1-----1-----|--0-----1-----|
--0-----------|--2-----------|--0-----0-----|--2-----2-----|--0--------2--|
-----0--------|-----0-----0--|-----0-----0--|-----0-----0--|-----0--------|
--------------|--------------|--------------|--------------|--------------|
--------------|--------------|--------------|--------------|--------------|
                                                       
-----------|--2-----2-----|--3-----------|--------0-----|--------------|
-----------|--1-----1-----|--0-----0-----|--1--------3--|--0-----------|
--0--------|--------------|--------0-----|--2-----------|--------0-----|
-----------|-----0-----0--|-----0-----0--|-----0--------|-----0-----0--|
-----------|--------------|--------------|--------------|--------------|
--3--------|--------------|--------------|--------------|--------------|
                                             
--2-----2-----|--3-----------|--------0-----|-----------||
--1-----1-----|--0-----0-----|--1--------3--|--0--------||
--------------|--------0-----|--2-----------|-----------||
-----0-----0--|-----0-----0--|-----0--------|-----------||
--------------|--------------|--------------|-----------||
--------------|--------------|--------------|--3--------||

kid©2007™
Suggest correction
comments
print report bad tab
1 comment total.
+1 reply
mitchrev21 185 wrote on May 26 2009, 04:31 pm

Thanks for the tab. This is my playing test in high school, believe it or not. thanks for helping me pass the playing test!

guest
You may want to rate the tab now too:
select rating
Wanna post a correction for this tab? Suggest correction