Oops, an error
Loading. Please wait.

Waltz In D Tab

version 1
version 1

Whole song

Interactive

670 views 3 this week
no commentswrite comment
1 2 3 4 5
please rate
add to favorites
launch autoscroll
font size
0
reset
how to read this tab
guitar tuner
Tab Pro tools
  • play this tab
  • loop segment
  • change instrument
  • show fretboard
  • metronome
×
Best way to learn
"Waltz In D"
Autoscroll
slow
fast
+/-
esc
set tempo
stop
Contributor
Difficulty
Tabbers playing skills
intermediate
advanced
E-|---Song:-Waltz-in-D-----------------------------|
A-|---Author:-Ferdinando-Carulli-------------------|
D-|---Transcription-by:Christian Liang-------------|
G-|---E-Mail:christian.liang@gmail.com-------------|   
B-|---http://www.chrisliang.com--------------------|
E-|---Enjoy!---------------------------------------|


Waltz in D by Ferdinando Carulli (1770-1841)
Grade 1- Early Intermediate



Part A

[1]

E|-------------------|-------------------|
B|-0-----0-----1-----|-------3-----------|
G|-0-----0-----2-----|-------------0-----|
D|-------------------|-------------------|
A|-------------------|-2================-|
E|-------------------|-------------------|

R  m     m     m       p     m     i       
   i     i     i

L              1       2     4             
               2
 
[3]

E|-------0-----------|-------------------|
B|-------------------|-------3-----------|
G|-------------0-----|-------------0-----|
D|-------------------|-------------------|
A|-3================-|-2================-|
E|-------------------|-------------------|

R  p     a     i       p     m     i

L  3                   2     4 

[5]

E|-------------------|-------------------|
B|-0-----0-----1-----|-------3-----------|
G|-0-----0-----2-----|-------------0-----|
D|-------------------|-------------------|
A|-------------------|-2================-|
E|-------------------|-------------------|

R  m     m     m       p     m     i       
   i     i     i                                               

L              1       2     4                   
               2

[7]

E|-------------------|------------------||
B|-------1-----------|------------------||
G|-------------2-----|-0===============*||
D|-0================-|-----------------*||
A|-------------------|------------------||
E|-------------------|-3===============-||

R  p     m     i       i
                       p

L        1     2       3


Part B

[9]

E|-------2-----------|-------3-----------|
B|-------------1-----|-------------0-----|
G|-------------------|-------------------|
D|-0================-|-0================-|
A|-------------------|-------------------|
E|-------------------|-------------------|

R  p     m     i       p     m     i       
L        3     1             3                   


[11]

E|-------------------|-------------------|
B|-------1-----------|-------0-----------|
G|-------------2-----|-------------0-----|
D|-0================-|-0================-|
A|-------------------|-------------------|
E|-------------------|-------------------|

R  p     m     i       p     m     i     

L        1     2 


[13]

E|--------2----------|-------3-----------|
B|-------------1-----|-------------0-----|
G|-------------------|-------------------|
D|-0================-|-0================-|
A|-------------------|-------------------|
E|-------------------|-------------------|

R  p     m     i       p     m     i       
							       
     
L        3     1             3                   


[15]

E|-------------------|------------------||
B|-------1-----------|------------------||
G|-------------2-----|-0===============*||
D|-0================-|-----------------*||
A|-------------------|------------------||
E|-------------------|-3===============-||

R  p     m     i       i
                       p

L        1     2       3


Part C

[17]

E|-------0-----------|-------0-----------|
B|-------------0-----|-------------0-----|
G|-------------------|-0================-|
D|-2================-|-------------------|
A|-------------------|-------------------|
E|-------------------|-------------------|

R  p     m     i       p     m     i       
L  2                                       


[19]

E|-------2-----------|-------3-----------|
B|-------------0-----|-------------0-----|
G|-------------------|-------------------|
D|-1================-|-2================-|
A|-------------------|-------------------|
E|-------------------|-------------------|

R  p     m     i       p     i     m

L  1     3             2     4


[21]

E|-------0-----------|-------0-----------|
B|-------------0-----|-------------0-----|
G|-------------------|-0================-|
D|-2================-|-------------------|
A|-------------------|-------------------|
E|-------------------|-------------------|

R  p     m     i       p     m     i       
							       
     
L  2                                          


[23]

E|-------2-----------|-0===============-||
B|-------------0-----|------------------||
G|-------------------|-----------------*||
D|-1================-|-2===============*||
A|-------------------|------------------||
E|-------------------|------------------||

R  p     m     i       m
                       p

L  1     3             2  


Part D

[25]

E|-------------------|-------0-----------|
B|-------4-----------|-------------0-----|
G|-------------2-----|-0================-|
D|-4================-|-------------------|
A|-------------------|-------------------|
E|-------------------|-------------------|
 
R  p     m     i       p     m     i       
L  3     4     1                          


[27]

E|-------2-----------|-------3-----------|
B|-------------0-----|-------------0-----|
G|-------------------|-------------------|
D|-1================-|-2================-|
A|-------------------|-------------------|
E|-------------------|-------------------|

R  p     m     i       p     m     i

L  1     3             2     4


[29]

E|-------------------|-------0-----------|
B|-------4-----------|-------------0-----|
G|-------------2-----|-0================-|
D|-4================-|-------------------|
A|-------------------|-------------------|
E|-------------------|-------------------|
 
R  p     m     i       p     m     i       
   							       

L  3     4     1                             

[31]

E|-------2-----------|-0-==============-||
B|-------------0-----|------------------||
G|-------------------|-----------------*||
D|-1================-|-2===============*||
A|-------------------|------------------||
E|-------------------|------------------||

R  p     m     i       m
                       p
L  1     3             2   





comments
We did not receive enough feedback on this tab! Please rate:
print report bad tab
1 2 3 4 5
I want to post or [tab]
guest
You may want to rate the tab now too:
select rating
Please do not post tabs as comments. Select "correction" instead!