Oops, an error
Loading. Please wait.
12,549 views 60 this week
1 commentread comment
1 2 3 4 5
x 4
add to favorites
launch autoscroll
font size
0
reset
how to read this tab
guitar tuner
×
Best way to learn
"Waltz"
Autoscroll
slow
fast
+/-
esc
set tempo
stop
Author
Difficulty
e|-----0--0--|-----1--1--|-----0--0--|-----------|
B|-----1--1--|-----0--0--|-----1--1--|--3--0-----|
G|*----------|-----------|-----------|--------0--|
D|*----------|--0--------|-----------|-----------|
A|--3--------|-----------|-----------|-----------|
E|-----------|-----------|--3--------|-----------|

e|-----0--0--|-----1--1--|-----------|----------|
B|-----1--1--|-----0--0--|--------0--|--1-------|
G|*----------|-----------|--0--2-----|---------*|
D|*----------|--0--------|-----------|---------*|
A|--3--------|-----------|-----------|--3-------|
E|-----------|-----------|-----------|----------|

e|-----------|-----------|-----1--1--|-----0--0--|
B|-----0--0--|-----1--1--|-----0--0--|-----1--1--|
G|*----0--0--|-----0--0--|-----------|-----------|
D|*-3--------|--2--------|--0--------|-----------|
A|-----------|-----------|-----------|--3--------|
E|-----------|-----------|-----------|-----------|

e|-----------|-----------|--1--------|----------|
B|-----0--0--|-----1--1--|-----3--0--|--1-------|
G|*----0--0--|-----0--0--|-----------|---------*|
D|*-3--------|--2--------|--0--------|---------*|
A|-----------|-----------|-----------|--3-------| 
E|-----------|-----------|-----------|----------|

e|--------0--|--------0--|-----------|-----------|
B|-----1-----|-----1-----|--3--1--0--|--1--0--1--|
G|*-2--------|--2--------|-----------|-----------|
D|*----------|-----------|-----------|-----------|
A|--0--------|--0--------|-----------|--0--------|
E|-----------|-----------|--0--------|-----------|

e|--------0--|--------0--|-----------|----------|
B|-----1-----|-----1-----|--3--1--0--|----------|
G|*-2--------|--2--------|-----------|--2------*|
D|*----------|-----------|-----------|---------*|
A|--0--------|--0--------|-----------|--0-------|
E|-----------|-----------|--0--------|----------|



************************************

| *  Natural harmonic

************************************
Suggest correction
comments
print report bad tab
1 comment total.
0 reply
khaister 10 Jan 15, 2010 05:03 PM

isn't the 7th note should be C (5th string 3rd fret)?

http://www.8notes.com/scores/2534.asp?ftype=gif

guest
You may want to rate the tab now too:
select rating
Wanna post a correction for this tab? Suggest correction