Oops, an error
Loading. Please wait.

A Alegria Do Senhor chords

721 views 1 this week
2 commentsread comments
1 2 3 4 5
1 last vote to show rating
add to favorites
×
Save as Personal and add changes to this tab that will be seen only by you. Learn more ›
×
You can save this tab as Personal to edit and correct it or add notes. All changes will be seen only by you. Learn more »
launch autoscroll
font size
0
reset
transpose
0
reset
simplify chords
display chords
guitar tuner
edit
Autoscroll
slow
fast
+/-
esc
set tempo
stop
Author
Strumming
There is no strumming pattern for this song yet. and get +5 IQ
A Alegria do Senhor
Fernandinho

Tom: A#
                
Intro: C5 Bb5 G5

E|-------------------------------------------------------------|
B|-------------------------------------------------------------| Riff 1 - Intro da Guitarra 1
G|--5-5-5-3--------5-5-5-3--------5-5-5-3----------------------|
D|--5-5-5-3--------5-5-5-3--------5-5-5-3----------------------|
A|--------------------------------------------1-0-1-0-1-0-1-0--|
E|----------3-3-3----------3-3-3----------3---1-0-1-0-1-0-1-0--|
                                             pm . . . . . . .

E|-----13~~------|
B|---------------| Riff 2 - Guitarra 2
G|--12-----------|
D|---------------|
A|---------------|
E|---------------|

E|---------------|
B|-----15~~------| Riff 3 - Guitarra 2
G|--12-----------|
D|---------------|
A|---------------|
E|---------------|

E|-----11~~--|
B|--13-------| Riff 4 - Guitarra 2
G|-----------|
D|-----------|
A|-----------|
E|-----------|

E|-------------------|
B|--13--15~~---------|      Riff 5 - Guitarra 2
G|-------------12~~--|
D|-------------------|
A|-------------------|
E|-------------------|

E|-----11~~------11-11-11-11-11-11-11-10-10-10-10--|
B|--13------13---11-11-11-11-11-11-11-10-10-10-10--|   Riff 6 - Guitarra 2
G|-------------------------------------------------|
D|-------------------------------------------------|
A|-------------------------------------------------|
E|-------------------------------------------------|

E|------------------------------|-----------------------|
B|-13-13-13-11-11-11------------|13-13-13-15-15-15-11~--|   Riff 7 - Guitarra 2
G|-------------------10-10--(3x)|-----------------------|
D|------------------------------|-----------------------|   Esse riff é feito junto com o refrão...
A|------------------------------|-----------------------|
E|------------------------------|-----------------------|

E|--------------------|
B|--------------------|  Solo na Guitarra 2, Depois do Refrão.
G|-3-0~--5/7-5-3-0~~--|
D|--------------------|
A|--------------------|
E|--------------------|




E|-------------------------------------------------------------|
B|-------------------------------------------------------------| Riff 8 - Guitarra 3
G|--5-5-5-3--------5-5-5-3--------5-5-5-3----------------------|  ( Com a Banda Tocando).
D|--5-5-5-3--------5-5-5-3--------5-5-5-3----------------------|
A|--3-3-3-1--------3-3-3-1--------3-3-3-1----------------------|
E|----------3-3-3----------3-3-3----------3---1-0-1-0-1-0-1-0--|
                                             pm . . . . . . .


( Riff 1 - Guitarra 1) - começa com o riff 1.

( Riff 2 - Guitarra 2) - mas quando o Fernandinho começa a cantar são a Guitarra 1 
e 2 com seus riffs.

Vento sopra forte
                           ( Riff 3 - Guitarra 2)
Tuas águas não podem me afogar

Vento sopra forte
                       ( Riff 2 - Guitarra 2)
E em Suas mãos vou segurar


OBS: Com a Banda toda.

Gm  + ( Riff 3 - Guitarra 2)
Vento sopra forte
                      ( Riff 2 - Guitarra 2)
Tuas águas não podem me afogar

Vento sopra forte
                     ( Riff 4 - Guitarra 2)
E em Suas mãos vou segurar

Cm                      ( Riff 5 - Guitarra 2)
 E Não me guio pelo que vejo
Gm                     ( Riif 6 - Guitarra 2)
Mas eu sigo pelo que creio
Cm
Eu não olho as circunstâncias
Eb             D
Eu vejo o Teu amor


( Riff 7 - Guitarra 2)
Gm             Bb             Eb       Cm
A Alegria do Senhor é a nossa força (4x)

   ( Solo na Guitarra 2)

        Bb                  Eb
Essa alegria não vai mais sair
        Eb                Gm
Essa alegria não vai mais sair
Bb                         Eb
Essa alegria não vai mais sair
   Cm                Gm
De dentro do meu coração

Gm             Bb             Eb  Cm (10X)
A Alegria do Senhor é a nossa força
Gm             Bb             Eb  Cm Bb Gm
A Alegria do Senhor é a nossa força

            
            
Suggest correction
Creating personal tab
Creating personal tab
You can edit any tab online and save it as your Personal.

You can edit, replace or remove any tab part or add personal notes – all changes will be seen only by you.

Personal tabs can be accessed anytime from any device, even offline.
Learn more »
Give kudos to tab author, rate the tab!
1 2 3 4 5
comments
print report bad tab
2 comments total.
0 reply
kayke 780 Oct 18, 2013 06:09 PM

Tom: A#

Intro: C5 Bb5 G5

E|-------------------------------------------------------------
B|------------------------------------------------------------- Riff 1 - Intro da Guitarra 1
G|--5-5-5-3--------5-5-5-3--------5-5-5-3----------------------
D|--5-5-5-3--------5-5-5-3--------5-5-5-3----------------------
A|--------------------------------------------1-0-1-0-1-0-1-0--
E|----------3-3-3----------3-3-3----------3---1-0-1-0-1-0-1-0--
pm . . . . . . .

E|-----13~~------
B|--------------- Riff 2 - Guitarra 2
G|--12-----------
D|---------------
A|---------------
E|---------------

E|---------------
B|-----15~~------ Riff 3 - Guitarra 2
G|--12-----------
D|---------------
A|---------------
E|---------------

E|-----11~~--
B|--13------- Riff 4 - Guitarra 2
G|-----------
D|-----------
A|-----------
E|-----------

E|-------------------
B|--13--15~~--------- Riff 5 - Guitarra 2
G|-------------12~~--
D|-------------------
A|-------------------
E|-------------------

E|-----11~~------11-11-11-11-11-11-11-10-10-10-10--
B|--13------13---11-11-11-11-11-11-11-10-10-10-10-- Riff 6 - Guitarra 2
G|-------------------------------------------------
D|-------------------------------------------------
A|-------------------------------------------------
E|-------------------------------------------------

E|------------------------------|-----------------------
B|-13-13-13-11-11-11------------|13-13-13-15-15-15-11~-- Riff 7 - Guitarra 2
G|-------------------10-10--(3x)|-----------------------
D|------------------------------|----------------------- Esse riff é feito junto com o refrão...
A|------------------------------|-----------------------
E|------------------------------|-----------------------

E|--------------------
B|-------------------- Solo na Guitarra 2, Depois do Refrão.
G|-3-0~--5/7-5-3-0~~--
D|--------------------
A|--------------------
E|--------------------

E|-------------------------------------------------------------
B|------------------------------------------------------------- Riff 8 - Guitarra 3 ( Com a Banda Tocando).
G|--5-5-5-3--------5-5-5-3--------5-5-5-3----------------------
D|--5-5-5-3--------5-5-5-3--------5-5-5-3----------------------
A|--3-3-3-1--------3-3-3-1--------3-3-3-1----------------------
E|----------3-3-3----------3-3-3----------3---1-0-1-0-1-0-1-0--
pm . . . . . . .

( Riff 1 - Guitarra 1) - começa com o riff 1.

( Riff 2 - Guitarra 2) - mas quando o Fernandinho começa a cantar são a Guitarra 1 e 2 com seus riffs.

Vento sopra forte
( Riff 3 - Guitarra 2)
Tuas águas não podem me afogar

Vento sopra forte
( Riff 2 - Guitarra 2)
E em Suas mãos vou segurar

OBS: Com a Banda toda.

Gm + ( Riff 3 - Guitarra 2)
Vento sopra forte
( Riff 2 - Guitarra 2)
Tuas águas não podem me afogar

Vento sopra forte
( Riff 4 - Guitarra 2)
E em Suas mãos vou segurar

Cm ( Riff 5 - Guitarra 2)
E Não me guio pelo que vejo
Gm ( Riif 6 - Guitarra 2)
Mas eu sigo pelo que creio
Cm
Eu não olho as circunstâncias
Eb D
Eu vejo o Teu amor

( Riff 7 - Guitarra 2)
Gm Bb Eb Cm
A Alegria do Senhor é a nossa força (4x)

( Solo na Guitarra 2)

Bb Eb
Essa alegria não vai mais sair
Eb Gm
Essa alegria não vai mais sair
Bb Eb
Essa alegria não vai mais sair
Cm Gm
De dentro do meu coração

Gm Bb Eb Cm (10X)
A Alegria do Senhor é a nossa força
Gm Bb Eb Cm Bb Gm
A Alegria do Senhor é a nossa força

0 reply
kayke 780 Oct 18, 2013 06:10 PM

A Alegria do Senhor
Fernandinho

Tom: A#

Intro: C5 Bb5 G5

E|-------------------------------------------------------------
B|------------------------------------------------------------- Riff 1 - Intro da Guitarra 1
G|--5-5-5-3--------5-5-5-3--------5-5-5-3----------------------
D|--5-5-5-3--------5-5-5-3--------5-5-5-3----------------------
A|--------------------------------------------1-0-1-0-1-0-1-0--
E|----------3-3-3----------3-3-3----------3---1-0-1-0-1-0-1-0--
pm . . . . . . .

E|-----13~~------
B|--------------- Riff 2 - Guitarra 2
G|--12-----------
D|---------------
A|---------------
E|---------------

E|---------------
B|-----15~~------ Riff 3 - Guitarra 2
G|--12-----------
D|---------------
A|---------------
E|---------------

E|-----11~~--
B|--13------- Riff 4 - Guitarra 2
G|-----------
D|-----------
A|-----------
E|-----------

E|-------------------
B|--13--15~~--------- Riff 5 - Guitarra 2
G|-------------12~~--
D|-------------------
A|-------------------
E|-------------------

E|-----11~~------11-11-11-11-11-11-11-10-10-10-10--
B|--13------13---11-11-11-11-11-11-11-10-10-10-10-- Riff 6 - Guitarra 2
G|-------------------------------------------------
D|-------------------------------------------------
A|-------------------------------------------------
E|-------------------------------------------------

E|------------------------------|-----------------------
B|-13-13-13-11-11-11------------|13-13-13-15-15-15-11~-- Riff 7 - Guitarra 2
G|-------------------10-10--(3x)|-----------------------
D|------------------------------|----------------------- Esse riff é feito junto com o refrão...
A|------------------------------|-----------------------
E|------------------------------|-----------------------

E|--------------------
B|-------------------- Solo na Guitarra 2, Depois do Refrão.
G|-3-0~--5/7-5-3-0~~--
D|--------------------
A|--------------------
E|--------------------

E|-------------------------------------------------------------
B|------------------------------------------------------------- Riff 8 - Guitarra 3 ( Com a Banda Tocando).
G|--5-5-5-3--------5-5-5-3--------5-5-5-3----------------------
D|--5-5-5-3--------5-5-5-3--------5-5-5-3----------------------
A|--3-3-3-1--------3-3-3-1--------3-3-3-1----------------------
E|----------3-3-3----------3-3-3----------3---1-0-1-0-1-0-1-0--
pm . . . . . . .

( Riff 1 - Guitarra 1) - começa com o riff 1.

( Riff 2 - Guitarra 2) - mas quando o Fernandinho começa a cantar são a Guitarra 1 e 2 com seus riffs.

Vento sopra forte
( Riff 3 - Guitarra 2)
Tuas águas não podem me afogar

Vento sopra forte
( Riff 2 - Guitarra 2)
E em Suas mãos vou segurar

OBS: Com a Banda toda.

Gm + ( Riff 3 - Guitarra 2)
Vento sopra forte
( Riff 2 - Guitarra 2)
Tuas águas não podem me afogar

Vento sopra forte
( Riff 4 - Guitarra 2)
E em Suas mãos vou segurar

Cm ( Riff 5 - Guitarra 2)
E Não me guio pelo que vejo
Gm ( Riif 6 - Guitarra 2)
Mas eu sigo pelo que creio
Cm
Eu não olho as circunstâncias
Eb D
Eu vejo o Teu amor

( Riff 7 - Guitarra 2)
Gm Bb Eb Cm
A Alegria do Senhor é a nossa força (4x)

( Solo na Guitarra 2)

Bb Eb
Essa alegria não vai mais sair
Eb Gm
Essa alegria não vai mais sair
Bb Eb
Essa alegria não vai mais sair
Cm Gm
De dentro do meu coração

Gm Bb Eb Cm (10X)
A Alegria do Senhor é a nossa força
Gm Bb Eb Cm Bb Gm
A Alegria do Senhor é a nossa força

guest
You may want to rate the tab now too:
select rating
Wanna post a correction for this tab? Suggest correction