Oops, an error
Loading. Please wait.

Dancar Na Chuva tab

version 2
version 2

Whole song

77 views 1 this week
no commentswrite comment
1 2 3 4 5
3 more votes to show rating
add to favorites
×
Save as Personal and add changes to this tab that will be seen only by you. Learn more ›
×
You can save this tab as Personal to edit and correct it or add notes. All changes will be seen only by you. Learn more »
launch autoscroll
font size
0
reset
how to read this tab
guitar tuner
edit
Autoscroll
slow
fast
+/-
esc
set tempo
stop
intro)

(riff 1)
E |------------------------------------------------|
B |------------------------------------------------|
G |---------7-5------------------------------------|
D |------55-7-5-----6-5-33--6-5-3------------------|   8x
A |------55---------6-5-33--6-5-3------------------|
E |------------------------------------------------|

 D
Novo caminho para andar,um novo sonho pra sonhar
                       G
O deserto não é o meu lugar
D
Uma nova vida Ele prometeu a todo aquele que nEle crê
                          G
O mar a nossa frente se abrirá

(refrão)
D              A                       Bm                    A
Nova criatura sou o velho homem já morreu vou dançar naquela terra que
         G       F#     Em   A
Ele prometeu eu vou eu vou

D              A                     Bm                       A
Nova criatura sou o velho homem já morreu vou dançar naquela terra que
         G       F#     Em   A
Ele prometeu eu vou eu vou

Eu vou dançar na chuvaaaaa!!!!!!

(riff 2)
E |--------------------------------------------------------------|
B |--------------------------------------------------------------|
G |--------------------------------------------------------------|
D |--2-2--4-5---2-2--4-5--2-2--4-5-2-2-2---2-2--4-5---2-2--4-5--2|  2x
A |--2-2--4-5---2-2--4-5--2-2--4-5-2-2-2---2-2--4-5---2-2--4-5--2|
E |--------------------------------------------------------------|

(repete tudo)

(riff 3 ?baixo?)
E |--------------------------------------------------------------|
B |--------------------------------------------------------------|
G |--------------------------------------------------------------|
D |---------------7/9--------------------------------------------|  6x
A |-----7/9------------------------------------------------------|
E |-7-7------7-7-------------------------------------------------|

E |--------------------------------------------------------------|
B |--------------------------------------------------------------|
G |--------------------------------------------------------------|
D |--9-9---9--8-8---8--7-7---7--6-6------------------------------|  9x
A |------9--------9--------9--------10-9-------------------------|
E |--------------------------------------------------------------|
(essa riff fica no fundo enquanto o
Fernandinho fica falando dance, dance, dance...)
(quando ele grita dance, dance, dance!!!!  Fica em B )

(riff 2)
E |--------------------------------------------------------------|
B |--------------------------------------------------------------|
G |--------------------------------------------------------------|
D |--2-2--4-5---2-2--4-5--2-2--4-5--2-2--4-5--2-2--4-5-----------|  2x
A |--2-2--4-5---2-2--4-5--2-2--4-5--2-2--4-5--2-2--4-5-----------|
E |--------------------------------------------------------------|
                D     (acaba esse riff com D )
E |--------------------------------------------------------------|
B |--------------------------------------------------------------|
G |--------------7-----------------------------------------------|
D |--------------7-----------------------------------------------|  2x
A |--------------5-----------------------------------------------|
E |--------------------------------------------------------------|

(refrão)
D              A                       Bm                    A
Nova criatura sou o velho homem já morreu vou dançar naquela terra que
         G       F#     Em   A
Ele prometeu eu vou eu vou

D              A                     Bm                       A
Nova criatura sou o velho homem ja morreu vou dançar naquela terra que
         G       F#     Em   A
Ele prometeu eu vou eu vou
                         Bm     (no final)
Eu vou dançar na chuvaaaaa!!!!!!

            
            
Suggest correction
Creating personal tab
Creating personal tab
You can edit any tab online and save it as your Personal.

You can edit, replace or remove any tab part or add personal notes – all changes will be seen only by you.

Personal tabs can be accessed anytime from any device, even offline.
Learn more »
Give kudos to tab author, rate the tab!
1 2 3 4 5
comments
print report bad tab
guest
Wanna post a correction for this tab? Suggest correction