Oops, an error
Loading. Please wait.

Andantino Tab

version 1
version 1

Whole song

Interactive

13,793 views 123 this week
1 commentread comment
1 2 3 4 5
excellent!
x 8
add to favorites
launch autoscroll
font size
0
reset
how to read this tab
guitar tuner
Autoscroll
slow
fast
+/-
esc
set tempo
stop
Help us to improve Ultimate-Guitar.com Take our survey!
×
Author
Difficulty
novice
Made some modifications to match this video on youtube:

http://www.youtube.com/watch?v=MbJsL1g2HLM

Originally Tabbed by:iXHeatSeekerXi
Email:Thunderstruck77@hotmail.com

Tuning:Standard
4/4
                                
e|-------------------------------0-2---3----3----2----2----0----0----------|
B|-0---0---1---1---3----3----3----------------------------------------3----|
G|---0---0---0---0---0----0--------------0----0----0----0------------------|
D|-------------------------------------2----2----0----0------0----0--------|
A|---------0---0---2----2----2-----------------------------3----3-----2----|
E|-3---3-------------------------------------------------------------------|

e|-------------0----------------3-2---0------------------------------------|
B|-1---1---1-----3--0---0---0-------------3---1----0--0---1---2---3--------|
G|-2---2---2--------0---0---0-----------------------------------------2----|
D|---0---0---0--------0---0---0-----------------------0---------------0----|
A|----------------------------------3---2---0------------------------------|
E|-----------------------------------------------3-------------------------|


e|-----2--------2------3----------------------2-------2-------3------------|
B|---1---1----1---1--------3-----0----3-----1---1---1---1---------3----0---|
G|-------------------0---0----0-----0----------------------0----0----0-----|
D|-0--------0-----------------------------0-------0------------------------|
A|-------------------------------------------------------------------------|
E|-------------------------------------------------------------------------|


e|-----------0--------------------------2------------3--------0------------|
B|---3---------------------3---------1-----1------0----0---------1-----0---|
G|-0------0-------------0-------------------------------------------2------|
D|--------------------------------0------------2-----------------------0---|
A|------3-------3-----2-------2----------------------------3---------------|
E|-------------------------------------------------------------------------|

e|-------------------------------------------------------------------------|
B|-3--1--------------------------------------------------------------------|
G|-------2-----0-----------------------------------------------------------|
D|----0-----------0--------------------------------------------------------|
A|------------------2------------------------------------------------------|
E|-----------3----------3--------------------------------------------------|
Suggest correction
What's this?
You can suggest a correction to this tab. Community and Mods will review your correction and vote to approve or reject it.
comments
print report bad tab
1 comment total.
0 reply
hdscooby 11 wrote on October 18 2014, 08:10 am

Easy to do , love it.

guest
You may want to rate the tab now too:
select rating
Please do not post tabs as comments. Select "correction" instead!