Oops, an error
Loading. Please wait.

Promenade Tab

1,609 views 6 this week
no commentswrite comment
1 2 3 4 5
please rate
add to favorites
launch autoscroll
font size
0
reset
how to read this tab
guitar tuner
Autoscroll
slow
fast
+/-
esc
set tempo
stop
Help us to improve Ultimate-Guitar.com Take our survey!
×
Author
Difficulty
intermediate
BY: REMUS KOH ZHEN HUI :)

E|-----0-0-1-1-0-0-|-----------------|-----0-0-1-1-0-0-|10---310------|
A|-013-1-1-3-3-1-1-|310--0-0-3-3-1-1-|-013-1-1-3-3-1-1-|--31----310---|
D|2----------------|---2-1-1-4-4-2-2-|2----------------|-----------212|
G|-----------------|-----------------|-----------------|-----0--------|
B|------0-0-0-0-0-0|--------------0-0|------0-0-0-0-0-0|-------------0|
E|-----------------|------0-0-0-0----|-----------------|---------0----|

E|-0-0-------------|-0-0-1-0---------|-0-0-------------|-0-0--1-0-----0|
A|4-4--0-0-3-3-1-1-|4-4--3-1-3-1-1-0-|4-4--0-0-3-3-1-1-|4-4---3-1-3-1-0|
D|-----1-1-4-4-2-2-|---------4-2-2-1-|-----1-1-4-4-2-2-|----------4-2-1|
G|-----------------|-----------------|-----------------|-----0-0-0-1--2|
B|--------------0-0|------0-0-0-0----|--------------0-0|---------------|
E|------0-0-0-0----|--------------0-0|------0-0-0-0----|---------------|

E|-----0-0-1-1-0-0-|-----------------|-----0-0-1-1-0-0-|10---310------|
A|-013-1-1-3-3-1-1-|310--0-0-3-3-1-1-|-013-1-1-3-3-1-1-|--31----310---|
D|2----------------|---2-1-1-4-4-2-2-|2----------------|-----------212|
G|-----------------|-----------------|-----------------|-----0--------|
B|------0-0-0-0-0-0|--------------0-0|------0-0-0-0-0-0|-------------0|
E|-----------------|------0-0-0-0----|-----------------|---------0----|

E|-------------0-0-1-1-3-3-1-0----|-------------0-0-1-1-3-1-0----|
A|--0--1-1-3-3-----------------3-3|--0--1-1-3-3---------------3-1|
D|02-0--0-0-0-0-0-0-0-0-0-0-0-0-0-|02-0--0-0-0-0-0-0-0-0-0-0-0-0-|
G|-----------------0-0-2-2-0------|-----------------0-0-2-0------|
B|-----3-3-2-2-3-3-----------3-2-2|-----3-3-2-2-3-3---------3-2-3|
E|--------------------------------|------------------------------|

E|-------------------------1-1-0-0----|-------------------------1-1-0-0--|
A|-----0-0-------1-1---------------3-3|-----0-0-------1-1---------------3|
D|-0-0--0-0--0-0--0-0--0-0--0-0-0-0-0-|-0-0--0-0--0-0--0-0--0-0--0-0-0-0-|
G|4-4--3-3--4-4--0-0--4-4--0-0--------|4-4--3-3--4-4--0-0--4-4--0-0------|
B|-----------------------------3-3-2-2|-----------------------------3-3-2|
E|------------------------------------|----------------------------------|

E|-------------0-0-1-1-3-3-1-0----|-------------0-0-1-1-3-1-0----|
A|--0--1-1-3-3-----------------3-3|--0--1-1-3-3---------------3-1|
D|02-0--0-0-0-0-0-0-0-0-0-0-0-0-0-|02-0--0-0-0-0-0-0-0-0-0-0-0-0-|
G|-----------------0-0-2-2-0------|-----------------0-0-2-0------|
B|-----3-3-2-2-3-3-----------3-2-2|-----3-3-2-2-3-3---------3-2-3|
E|--------------------------------|------------------------------|

E|-----0-0-1-1-0-0-|-----------------|-----0-0-1-1-0-0-|10---310------|
A|-013-1-1-3-3-1-1-|310--0-0-3-3-1-1-|-013-1-1-3-3-1-1-|--31----310---|
D|2----------------|---2-1-1-4-4-2-2-|2----------------|-----------212|
G|-----------------|-----------------|-----------------|-----0--------|
B|------0-0-0-0-0-0|--------------0-0|------0-0-0-0-0-0|-------------0|
E|-----------------|------0-0-0-0----|-----------------|---------0----|
Suggest correction
Give kudos to tab author, rate the tab!
1 2 3 4 5
comments
print report bad tab
guest
You may want to rate the tab now too:
select rating
Please do not post tabs as comments. Select "correction" instead!