Oops, an error
Loading. Please wait.

Aguacate tab

version 1
version 1
25 views 1 this week
no commentswrite comment
1 2 3 4 5
3 more votes to show rating
add to favorites
×
Save as Personal and add changes to this tab that will be seen only by you. Learn more ›
×
You can save this tab as Personal to edit and correct it or add notes. All changes will be seen only by you. Learn more »
launch autoscroll
font size
0
reset
how to read this tab
guitar tuner
edit
Autoscroll
slow
fast
+/-
esc
set tempo
stop
INTRO:

1|--------------------------------------------------------------|e
2|-------1---------1---------3---------1---------1-----1--------|b
3|-----0---0-----0---0-----0---0-----0---0-----0---2-----2------|g
4|---2---------2---------2---------2---------2------------------|D
5|-3---------3---------3---------3---------3---------3----------|A
6|--------------------------------------------------------------|E

1|---------------------|e
2|-------1h0---------1-|b
3|-----0-----0-----0---|g
4|---2-----------2-----|D
5|-3-----------3-------|A
6|---------------------|E

ESTROFA:
                           ya no
1|---------------------------------------------------------------|e
2|-------1---------1---------1h0---------1---------1---------1---|b
3|-----0---0-----0---0-----0-----0-----0---0-----0---0-----0---0-|g
4|---2---------2---------2-----------2---------2---------2-------|D
5|-3---------3---------3-----------3---------3---------3---------|A
6|---------------------------------------------------------------|E

         y no                                   aplica
1|-----------------------------------------------------------------|e
2|-------1h0---------1---------1---------1---------1h0---------3---|b
3|-----0-----0-----0---0-----0---0-----0---0-----0-----0-----0---0-|g
4|---2-----------2---------2---------2---------2-----------2-------|D
5|-3-----------3---------3---------3---------3-----------3---------|A
6|-----------------------------------------------------------------|E

                          cuando
1|--------------------------------------------------------------|e
2|-------3---------3---------1---------1---------1---------1----|b
3|-----0---0-----0---0-----0---0-----0---0-----0---0-----0----0-|g
4|---2---------2---------2---------2---------2---------2--------|D  
5|-3---------3---------3---------3---------3---------3----------|A
6|--------------------------------------------------------------|E


INTRO 2 VECES:

Peligroso enmascarado ya no quiere ir
a la escuela pues se atora en el ingles
y no le salen sus tareas, todo lo que
había aprendido no se aplica ni siquiera en el recreo

INTRO

No es que o tengan por malo es que solo 
no lo entienden ni les gusta ningún 
niño que parezca diferente no lo dejan 
que se acerque y lo empujan y lo alejan 
y se juntan y e van para otro lado donde 
no se hacen preguntas

INTRO

Su familia cree que es hora ya de que aprenda Karate 
su abuelita le hace un sweater no le dicen no lo sabe
su papá le compra un rifle y un libro de chistes para platicar
lo contempla su hermanito ese no ha aprendido a hablar

INTRO

Él conoce todo lo que hay que saber sobre animales hasta
Dice que quiere ser policía cuando sea grande para cuidarlos
A todos que no saben que es campeón de natación, luego entrena 
adivinanzas para hacer conversación, ayer me contó una de ellas
            1|-----|e
            2|--1--|b
            3|--0--|g
            4|--2--|D
            5|--3--|A
            6|-----|E
Cate de mi corazón


ME PARECIÓ DIVERTIDA LA CANCIÓN Y ESTÁ FACIL, ESPERO QUE LES GUSTE. 
 
En la parte de la estrofa coloque unas palabras del primer 
párrafo para que se den más o menos una idea de cómo tocar 
en cada párrafo.
Suggest correction
Creating personal tab
Creating personal tab
You can edit any tab online and save it as your Personal.

You can edit, replace or remove any tab part or add personal notes – all changes will be seen only by you.

Personal tabs can be accessed anytime from any device, even offline.
Learn more »
Give kudos to tab author, rate the tab!
1 2 3 4 5
comments
print report bad tab
guest
Wanna post a correction for this tab? Suggest correction