Oops, an error
Loading. Please wait.

Aguacate tab

version 3
version 3
21 views 3 this week
no commentswrite comment
1 2 3 4 5
3 more votes to show rating
add to favorites
×
Save as Personal and add changes to this tab that will be seen only by you. Learn more ›
×
You can save this tab as Personal to edit and correct it or add notes. All changes will be seen only by you. Learn more »
launch autoscroll
font size
0
reset
how to read this tab
guitar tuner
edit
Autoscroll
slow
fast
+/-
esc
set tempo
stop
Esta canción es muy sencilla, aunque hay que agarrarle
un poco de velocidad.
En la parte 'Versos' se repite 3 vaces ya que son (obviamente)
3 estrofas.

Intro:

1||------------------------|-----------------------|
2||o-------1----------1----|-------3----------1----|
3||------0----0-----0----0-|-----0----0-----0----0-|
4||----2----------2--------|---2----------0--------|
5||o-3-----3----3-----3----|-3----------2-----3----|
6||------------------------|-------3---------------|

|-----------------------|-------------------------||
|-------1----------1----|-------1p0---------1----o||
|-----2----0-----0----0-|-----0-----0-----0----0--||
|---2----------2--------|---2-----------0---------||
|-3-----3----3-----3----|-3-----------2-----3----o||
|-----------------------|-------3-----------------||

Versos:
||--||------------------------|--------------------------||
||o-||o-------1----------1----|-------1p0---------1-----o||
||--||------0----0-----2----0-|-----0-----0-----0----0---||
||--||----2----------2--------|---2-----------0----------||
||o-||o-3-----3----3-----3----|-3-----------2-----3-----o||
||--||------------------------|-------3------------------||

|-----------------------|-------------------------|
|-------1----------1----|-------1p0---------------|
|-----0----0-----2----0-|-----0-----0-----0-----2-|
|---2----------2--------|---2-----------0-----2---|
|-3-----3----3-----3----|-3-----------2-----0-----|
|-----------------------|-------3-----------------|

|-----------------------|------------------------|
|-------3----------3----|-------------------1----|
|-----2----2-----2----2-|-----2-----0-----0----0-|
|---0----------0--------|---0-----0-----0--------|
|-----------------------|-------------2-----3----|
|-2----------2----------|-2-----3----------------|

|--------------------------|
|-------1----------1-------|
|-----2----0-----0----0----|
|---2----------2-----------|
|-3-----3----3-----3-------|
|--------------------------|

 Puente:
|----------------------------------|
|-------1----------3----------1----|
|-----0----0-----0----0-----0----0-|
|---2----------2----------0--------|
|-3-----3----3----------2-----3----|
|------------------3---------------|
                                                  x3
|-----------------------|-------------------------||
|-------1----------1----|-------1p0---------1----o||
|-----2----0-----0----0-|-----0-----0-----0----0--||
|---2----------2--------|---2-----------0---------||
|-3-----3----3-----3----|-3-----------2-----3----o||
|-----------------------|-------3-----------------||

Verso final:
|-----------------------|-----------------------|
|-------1----------1----|-------1----------1----|
|-----0----2-----2----2-|-----0----0-----0----0-|
|---2----------2--------|---0----------2--------|
|-3-----0----0-----0----|-2-----3----3-----3----|
|-----------------------|-----------------------|

|-----------------------|-----------------------|
|-------1----------1----|-------3----------3----|
|-----0----2-----2----2-|-----0----0-----0----0-|
|---2----------2--------|---0----------0--------|
|-3-----0----0-----0----|-----------------------|
|-----------------------|-3-----3----3-----3----|

|-----------------------|------------------------|
|-------1----------1----|-------3----------------|
|-----0----0-----2----0-|-----0----0-----0-----2-|
|---0----------2--------|---2----------0-----2---|
|-2-----3----3-----3----|-3----------2-----0-----|
|-----------------------|-------3----------------|

|-----------------------|------------------------|
|-------3----------3----|-------------------1----|
|-----2----2-----2----2-|-----2-----0-----0----0-|
|---0----------0--------|---0-----0-----0--------|
|-----------------------|-------------2-----3----|
|-2----------2----------|-2-----3----------------|

|-----------------------|-----------------------|
|-------1----------1----|-------1----------1----|
|-----2----0-----0----0-|-----0----2-----2----2-|
|---2----------2--------|---2----------2--------|
|-3-----3----3-----3----|-3-----3----3-----3----|
|-----------------------|-----------------------|

|------------------------*|
|-------1p0---------1----*|
|-----0-----0-----0-0----*|
|---2-----------0---2----*|
|-3-----------2-----3----*|
|-------3----------------*|

°°°°°°°°°°°°°°°°°°°°°°°°°°°°°°°°°°°°°°°°°°°°°°°°°°°°°°°°°°°°°°°°°°°°°°°°°°°

Peligroso enmascarado ya no quiere ir a la escuela
pues se atora en el ingles y no le salen sus tareas
todo lo que había aprendido no se aplica ni siquiera
en el recreo...
cuando juega entre otros reos sin que nadie lo prefiera

No es que lo tengan por malo es que sólo no lo entienden
ni les gusta ningun niño que parezca diferente
no lo dejan que se acerque y lo empujan y lo alejan
y se juntan...
y se van para otro lado donde no se hacen preguntas.

Su familia cree que es hora ya de que aprenda karate, 
su abuelita le hace un suéter no lo dicen... no lo sabe;
su papá le compro un rifle y un libro de chistes para platicar...
lo contempla a su hermanito, ése no ha aprendido a hablar.

Él conoce todo lo que hay que saber sobre animales
hasta dice que quiere ser policía cuando sea grande
para cuidarlos a todos que no saben que es campeón de
natación...
luego entrena adivinanzas para hacer conversación
ayer me confió una de ellas: cate de mi corazón.

°°°°°°°°°°°°°°°°°°°°°°°°°°°°°°°°°°°°°°°°°°°°°°°°°°°°°°°°°°°°°°°°°°°°°°°°°°°°°°°°°°°°
 |  = barra
||o = barra de  repetición inicial
o|| = barra de repetición final
*|  = barra doble del final

Eso es todo.

        />
       /

************************************************************************************
Este Tab fué generado usando 'Power Tab Editor' - 
************************************************************************************
Suggest correction
Creating personal tab
Creating personal tab
You can edit any tab online and save it as your Personal.

You can edit, replace or remove any tab part or add personal notes – all changes will be seen only by you.

Personal tabs can be accessed anytime from any device, even offline.
Learn more »
Give kudos to tab author, rate the tab!
1 2 3 4 5
comments
print report bad tab
guest
Wanna post a correction for this tab? Suggest correction