Oops, an error
Loading. Please wait.

Amor De Voceador tab

version 2
version 2

Whole song

17 views 1 this week
no commentswrite comment
1 2 3 4 5
3 more votes to show rating
add to favorites
×
Save as Personal and add changes to this tab that will be seen only by you. Learn more ›
×
You can save this tab as Personal to edit and correct it or add notes. All changes will be seen only by you. Learn more »
launch autoscroll
font size
0
reset
how to read this tab
guitar tuner
edit
Autoscroll
slow
fast
+/-
esc
set tempo
stop
intro
      D7         C#7   C7     D         G           D      A7
e|------5--5--------4-----3-----2--2------3-----3------2---------------|
B|--5h7----7--------6-----5-----3--3------0-----0------3------2--------|
G|---------5--------4-----3-----2--2------0-----0------2------0--------|
D|--7------7--7--6--6--5--5---0----0---------0------0---------2--------|
A|---------5--5--4-----3-----------------------------------0-----------|
E|--------------------------------------3------------------------------|


      D7         C#7   C7     D         E             A7    
e|------5--5--------4-----3-----2--2------0----------------------------|
B|--5h7----7--------6-----5-----3--3------0-----------2------5---------|
G|---------5--------4-----3-----2--2------1-----------0------6---------|
D|--7------7--7--6--6--5--5---0----0------------------2------7---------|
A|---------5--5--4-----3------------------------------0------0---------|
E|--------------------------------------0---0h2h3h4--------------------|

      D7         C#7   C7     B7  E                              A7  D      
e|------5--5--------4-----3---2--------------------------------------2-|
B|--5h7----7--------6-----5---4-----0---0---0---0----------------2---3-|
G|---------5--------4-----3---2----------------------------------0---2-|
D|--7------7--7--6--6--5--5---4-------------------0--------------2---0-|
A|---------5--5--4-----3------2-----------0---4------0-0-0h1-0---0-----|
E|--------------------------------0---4--------------------------------|

RIFF 1                   RIFF 2
e|-----------|            e|-----------|  
B|-----------|            B|-----------|
G|-----------|            G|-----------|
D|-----------|            D|-----------|
A|-0h2h3h4---|            A|-0-2-3-4---|
E|-----------|            E|-----------|


D                        A#7
La vi en una portada de revista
D                           D7
Digamos que fue por casualidad
G                Gm
Yo nunca solía andar 
           D               B7
donde los puestos muestran fotos 
         E7                 A7        RIFF 1
de las chicas que se dejan retratar


D                             A#7
Voltée y me coqueteó con la mirada
D                           D7
Con su risa leve se me insinuó
        G          Gm            D       B7  
Con su hombro levantaba un negligee de color
     E           A7           D
La playmate de febrero de mi amor

RIFF 2        A7
Recuerdo que estaba cohibido
    D
Al darle al individuo
    E                      A7
El pago del prohibido magazine
RIFF 2       A7
Que es lo que va a pensar la gente
           D
Cuando me vean pasear la sonriente 
   E                           A7   RIFF 1
muchacha que he comprado para mí


(SILBIDO)
D  A#7  D   D7   G-Gm   D-B7  E-A7-D

e|-------------------2-|
B|---------------2---3-|
G|---------------0---2-|
D|-0-------------2---0-|
A|---0-0-0h1-0---0-----|
E|---------------------|


D                                  A#7
Al llegar a mi casa cerré bien las puertas
D                            D7
Y abrí las hojas con curiosidad
     G             Gm
Y entonces miss febrero 
       D           B7             E
simplemente fue Juliette para mi
                      A7
La tuve ahí con sombrerito medias blancas 
        F#7              B7
y unos guantes de encaje uh
   E                        A7  RIFF 1
mirando mi rubor desde un sofá

D                            A#7
Supe que era feliz y era soltera
D                                 D7
Que piensa que un gimnasio con jacuzzi es mejor
          G       Gm 
Que le encanta la paz y 
D          B7
todo lo demás 
             E       A7         D
y que no ha conocido el amor jamás
B7               E          A7
doro ro ro ro    ro ro ro ro

RIFF 2   A7
Envíe mensajes obsesivos a los 
D
treinta ejecutivos
     E                   A7
Que emiten la feliz publicación
RIFF 2   A7
Y me contesta una tarjeta
         D
Que ella era tan discreta
       E                  A7*
Que olvidó dejar su dirección
A7* G#7 G7  F#7
No  pu  de  hallar a miss febrero 
  B7      E                      A7  RIFF 1
nunca y estuve enfermo de desilusión
        G     Gm                   D       B7
Pero llegó el consuelo hasta mi herido corazón
              E         A7     D
Con la miss marzo, mi segundo amor

D                             A#7
Vino miss julio y vino miss agosto,
D                                 D7
me gustó miss noviembre, cierta chica oriental
        G          Gm         D            B7
miss diciembre, holandesa, me paraba de cabeza
 E                       A7*
me fui volviendo internacional
A7*  G#7 G7  F#7                    B7
Oh,  yo  no  soy aficionado a las revistas,
    E                     A7
Prefiero selección que variedad
   G     Gm                D
Sólo corsetería francesa blanca,
      B7                 E          A7        D
Pero creo que me conformaría una chica de verdad


Chords:
    D  A#7   D7  G  Gm  B7   E   A7  F#7  A7* G#7  G7
e|--2---1----2---3---3--2----0---0----2---5----4----3--|
B|--3---3----1---3---3--4----3---2----2---5----4----3--|
G|--2---1----2---4---3--2----1---0----3---6----5----4--|
D|--0---3----0---5---5--4----2---2----2---5----4----3--|
A|--0---1----0---5---5--2----2---0----4---7----6----5--|
E|--0---1----0---3---3--2----0---0----2---5----4----3--|

            
            
Suggest correction
Creating personal tab
Creating personal tab
You can edit any tab online and save it as your Personal.

You can edit, replace or remove any tab part or add personal notes – all changes will be seen only by you.

Personal tabs can be accessed anytime from any device, even offline.
Learn more »
Give kudos to tab author, rate the tab!
1 2 3 4 5
comments
print report bad tab
guest
Wanna post a correction for this tab? Suggest correction