Oops, an error
Loading. Please wait.

Carbonero tab

version 2
version 2

Whole song

12 views 1 this week
no commentswrite comment
1 2 3 4 5
3 more votes to show rating
add to favorites
×
Save as Personal and add changes to this tab that will be seen only by you. Learn more ›
×
You can save this tab as Personal to edit and correct it or add notes. All changes will be seen only by you. Learn more »
launch autoscroll
font size
0
reset
how to read this tab
guitar tuner
edit
Autoscroll
slow
fast
+/-
esc
set tempo
stop
Fernando Delgadillo / Gonzalo Ceja


"Como es que siendo medio día
te distingo como sombra
residuo de la noche
que has dejado en la vereda"

INTRO:
    D           C               D                  C          D             D
e|--17-------15--------------19-17-----------15--14---------------------------------|
B|--------------15---------------------------------15-------------------------------|
G|----------------------------------------------------------------------------------|armónica
D|----------------------------------------------------------------------------------|
A|----------------------------------------------------------------------------------|
E|----------------------------------------------------------------------------------|

           D                          Am
 Viene detrás de la montaña y le acompaña el sol
                                                D
 trae su carga bien atada y en su mula trae carbón
                                             Am7
 Quince días entre la leña alimentando el fogón
                                             D
 Verde el cerro, gris el humo, y negro su color

Verso 2: 
F           C            G             D
 La mañana le sonríe y apunta al mediodía
F             C               G            D
 madrugada en el camino y su paso pierde prisa,
F                C          F*      E*    D*  C*---------------Tocar los bajos unicamente
 el pueblo le espera ya su carga está vendida
        Bb          C               D
 sus monedas se perdieron en la cantina

    D                    C           D                  C
e|-------------------------------------------------------------------------|
B|-------------------------------------------------------------------------|
G|-------------------------------------------------------------------------|Violonchello
D|--2^4--2^4--2^4--4-2-0----0--2--5--2^4-2^4-2^4--4-2-0----0--2--5--4------|
A|-----------------------3------------------------------3------------------|
E|-------------------------------------------------------------------------|


Verso 3:                                                           Fig1
          D                             Am                  e|---------------|
 LA bronquitis le AbRE el pecho ya perdió casi la voz       B|---------------|
        D                         Am7                       G|--4--2--0--2---|Violonchello
 de regreso hacia su casa con la noche se encontró          D|---------------|
Bb              C            D                              A|---------------|
 su hacha le espera y el carbón  [Fig1]                     E|---------------|
        
        D                         Am7
 Comerciantes en la villa cargan bultos al camión,
        C                    D
 salen rumbo a la ciudad de México
        D                          Am7
 Viene rumbo a la ciudad aquel carbón
                          C         D
 que solo se usa o se consume de repente,

 cuando brinca la ocasión

         D C G D x8
           D                             C
 Los hambrientos van en busca de hamburguesas al carbón
        G                        D
 tienen el sabor a campo del sencillo Filemón
        D                          C
 Los domingos a los parques y después de la excursión
       G                      D
 los anafres asan carne celebrando la reunión
        D                             C
 En la casa ya se cuenta hoy día con una instalación de gas
        G                            D
 para evitar las molestias de andar buscando el carbón
        D                            C
 El carbón color de mugre ensucia y mancha la visión
       G                      D
 como poco se usa ya no causa   contaminación
        D                      C
 Lejos siendo medio día se distingue tu color
           G                         D
 verde el cerro, azul el cielo y tu negro Filemón
        D                        C
 Como brillan las mañanas y que poco brilla el sol
         G                      D
 en las monedas que pagan su monótona prisión

(batería) D C G Dx4
Violonchello 
e|--------------------------------------------------------------------------------------------|
B|--------------7-7-5-------1-2-3---7^5-7^5-7^5-7^5-5-3-----------------------3--3-5-3-6-5-3--|
G|--4-2-0-2-------------2-4------------------------------4-2-0-2----------2-4-----------------|
D|----------------------------------------------------------------0-2-4-4---------------------|
A|--------------------------------------------------------------------------------------------|
E|--------------------------------------------------------------------------------------------|

        D                            C
 El carbón color de mugre ensucia y mancha la visión
       G                      D
 como poco se usa ya no causa   contaminación
        D                      C
 Lejos siendo medio día se distingue tu color
           G                         D
 verde el cerro, azul el cielo y tu negro Filemón
        D                        C
 Como brillan las mañanas y que poco brilla el sol
          G                                  D
 cuando alumbra a tantos que hay como el borracho Filemón

     D          C            G                                       D
e|--17-----------------------19-17-19-22-------------------19--------17----|
B|-------------------------------------------------------------------------|
G|-------------------------------------------------------------------------|armónica
D|-------------------------------------------------------------------------|
A|-------------------------------------------------------------------------|
E|-------------------------------------------------------------------------|
Suggest correction
Creating personal tab
Creating personal tab
You can edit any tab online and save it as your Personal.

You can edit, replace or remove any tab part or add personal notes – all changes will be seen only by you.

Personal tabs can be accessed anytime from any device, even offline.
Learn more »
Give kudos to tab author, rate the tab!
1 2 3 4 5
comments
print report bad tab
guest
Wanna post a correction for this tab? Suggest correction