Oops, an error
Loading. Please wait.

Casa Sin Puertas tab

version 3
version 3

Whole song

20 views 1 this week
no commentswrite comment
1 2 3 4 5
3 more votes to show rating
add to favorites
×
Save as Personal and add changes to this tab that will be seen only by you. Learn more ›
×
You can save this tab as Personal to edit and correct it or add notes. All changes will be seen only by you. Learn more »
launch autoscroll
font size
0
reset
how to read this tab
guitar tuner
edit
Autoscroll
slow
fast
+/-
esc
set tempo
stop
A MI PRIMA 
VANESSA PALAFOX, PORQUE NO TE HE VUELTO A VER

Y YA DEJÁNDONOS DE SUTILEZAS, TOQUENLA COMO DEBE DE SER.


INTRO:

E |-----------------------2--|--------------------2---|----------------------2-|----------------------------2---|
B |----------------2---------|---------------2--------|--------------0---------|-----------------0--------------|
G |--------4----------4------|--------4---------4-----|-------4----------4-----|--------4-----------4-----------|
D |------------4-------------|------------4-----------|----------4-------------|-------------4------------------|
A |-2------------------------|---2--------------------|--0---------------------|--2-----------------------------|
E |--------------------------|------------------------|------------------------|--------------------------------|

E |---------------------2----|----------------------2-|---------------------2--|---------------2----------------|
B |--------------2-----------|----------------2-------|--------------0---------|------------0-------------------|
G |------4----------4--------|-------4-----------4----|-------4---------4------|---------4----------------------|
D |----------4---------------|-------------4----------|----------4-------------|-------4------------------------|
A |-2------------------------|---2--------------------|--0---------------------|-----0--------------------------|
E |--------------------------|------------------------|------------------------|--------------------------------|


¿ Y SI ESTA NOCHE DE RECUERDOS LIBERADOS COMO UNA VENTANA ABIERTA 

E |------------------------2--|------------------------------2--|--------------------------2----|--------------------------2--|
B |----------------2----------|-------------------0-------------|---------------0---------------|------------------2----------|
G |--------4-----------4------|---------4--------------4--------|-------0-------------0---------|--------2-------------2------|
D |------------4--------------|--------------4------------------|------------0------------------|-------------4---------------|
A |--2------------------------|--0------------------------------|-------------------------------|-----------------------------|
E |---------------------------|---------------------------------|--3----------------------------|--2--------------------------|

PUDIERA HALLAR EN ESTE LABERINTO DE HISTORIAS EL NORTE Y DIRECCIÓN ¿
E |------------------------2--|------------------------------2--|--------------------------2----|--------------------------2--|
B |----------------2----------|-------------------0-------------|---------------0---------------|------------------2----------|
G |--------4-----------4------|---------4--------------4--------|-------0-------------0---------|--------2-------------2------|
D |------------4--------------|--------------4------------------|------------0------------------|-------------4---------------|
A |--2------------------------|--0------------------------------|-------------------------------|-----------------------------|
E |---------------------------|---------------------------------|--3----------------------------|--2--------------------------|

A LO MEJOR CONSIGO ESTOS AÑOS DESPUÉS, AQUÍ Y DE NUEVO ANTE TU PUERTA,
E |------------------------2--|------------------------------2--|--------------------------2----|--------------------------2--|
B |----------------2----------|-------------------0-------------|---------------0---------------|------------------2----------|
G |--------4-----------4------|---------4--------------4--------|-------0-------------0---------|--------2-------------2------|
D |------------4--------------|--------------4------------------|------------0------------------|-------------4---------------|
A |--2------------------------|--0------------------------------|-------------------------------|-----------------------------|
E |---------------------------|---------------------------------|--3----------------------------|--2--------------------------|

LLAMAR EN NOMBRE DEL PASADO Y LO PERDIDO A LO QUE NUNCA APARECIÓ.
E |------------------------2--|------------------------------2--|--------------------------2----|--------------------------2--|
B |----------------2----------|-------------------0-------------|---------------0---------------|------------------2----------|
G |--------4-----------4------|---------4--------------4--------|-------0-------------0---------|--------2-------------2------|
D |------------4--------------|--------------4------------------|------------0------------------|-------------4---------------|
A |--2------------------------|--0------------------------------|-------------------------------|-----------------------------|
E |---------------------------|---------------------------------|--3----------------------------|--2--------------------------|

A LO MEJOR PUDIERA VEINTE AÑOS DESPUÉS, JUNTANDO MAS BUENAS RAZONES.
E |------------------------2--|------------------------------2--|--------------------------2----|--------------------------2--|
B |----------------2----------|-------------------0-------------|---------------0---------------|------------------2----------|
G |--------4-----------4------|---------4--------------4--------|-------0-------------0---------|--------2-------------2------|
D |------------4--------------|--------------4------------------|------------0------------------|-------------4---------------|
A |--2------------------------|--0------------------------------|-------------------------------|-----------------------------|
E |---------------------------|---------------------------------|--3----------------------------|--2--------------------------|


PARA QUE, ESTAR ASÍ PARADO ANTE MI SOMBRA NO ME INVITARA A ESCAPAR
E |------------------------2--|------------------------------2--|--------------------------2----|--------------------------2--|
B |----------------2----------|-------------------0-------------|---------------0---------------|------------------2----------|
G |--------4-----------4------|---------4--------------4--------|-------0-------------0---------|--------2-------------2------|
D |------------4--------------|--------------4------------------|------------0------------------|-------------4---------------|
A |--2------------------------|--0------------------------------|-------------------------------|-----------------------------|
E |---------------------------|---------------------------------|--3----------------------------|--2--------------------------|


DE TI Y DE MI, Y DEL VÉRTIGO DE HABLAR CONTIGO EN CASI TODAS LAS SESIONES.
E |------------------------2--|------------------------------2--|--------------------------2----|--------------------------2--|
B |----------------2----------|-------------------0-------------|---------------0---------------|------------------2----------|
G |--------4-----------4------|---------4--------------4--------|-------0-------------0---------|--------2-------------2------|
D |------------4--------------|--------------4------------------|------------0------------------|-------------4---------------|
A |--2------------------------|--0------------------------------|-------------------------------|-----------------------------|
E |---------------------------|---------------------------------|--3----------------------------|--2--------------------------|


SABRÍAS DE AÑOS DE IR RECORRIENDO MIL LUGARES DONDE NO TE VOLVÍ A HALLAR.
E |------------------------2--|------------------------------2--|--------------------------2----|--------------------------2--|
B |----------------2----------|-------------------0-------------|---------------0---------------|------------------2----------|
G |--------4-----------4------|---------4--------------4--------|-------0-------------0---------|--------2-------------2------|
D |------------4--------------|--------------4------------------|------------0------------------|-------------4---------------|
A |--2------------------------|--0------------------------------|-------------------------------|-----------------------------|
E |---------------------------|---------------------------------|--3----------------------------|--2--------------------------|


         E
   NO IMPORTA CUANTOS OJOS
    F#
   HE VISTO DESPUES DE DESCUBRIR 
              B
   TUS OJOS CLAROS
        B*           G           FM#
   SI A MI TUS OJOS ME ENSEÑARON A VER

        B
   NO IMPORTA CUANTAS
          B/A             G
   VECES TENGA QUE VENIR A
   FM#
   RECORDAR BAJO EL MANZANO
       B
   QUE NO ERES TU QUIEN HA HABITADO 
          B/A              G
   EN ESTA CASA, POR MAS QUE INSISTA
   FM#
   EN VOLVER.


POR MAS QUE INSISTA EN VOLVER
E |------------------------2--|------------------------------2--|--------------------------2----|--------------------------2--|
B |----------------2----------|-------------------0-------------|---------------0---------------|------------------2----------|
G |--------4-----------4------|---------4--------------4--------|-------0-------------0---------|--------2-------------2------|
D |------------4--------------|--------------4------------------|------------0------------------|-------------4---------------|
A |--2------------------------|--0------------------------------|-------------------------------|-----------------------------|
E |---------------------------|---------------------------------|--3----------------------------|--2--------------------------|


LA NOCHE ES LARGA Y EN SUS VUELOS ME CONDUCE A LOS LINDEROS DE LOS EXTRAÑO.
E |------------------------2--|------------------------------2--|--------------------------2----|--------------------------2--|
B |----------------2----------|-------------------0-------------|---------------0---------------|------------------2----------|
G |--------4-----------4------|---------4--------------4--------|-------0-------------0---------|--------2-------------2------|
D |------------4--------------|--------------4------------------|------------0------------------|-------------4---------------|
A |--2------------------------|--0------------------------------|-------------------------------|-----------------------------|
E |---------------------------|---------------------------------|--3----------------------------|--2--------------------------|


A ESTA CASA SIN PUERTAS, DONDE SUSURRAN LAS HOJAS QUE OTOÑO ACARREO
E |------------------------2--|------------------------------2--|--------------------------2----|--------------------------2--|
B |----------------2----------|-------------------0-------------|---------------0---------------|------------------2----------|
G |--------4-----------4------|---------4--------------4--------|-------0-------------0---------|--------2-------------2------|
D |------------4--------------|--------------4------------------|------------0------------------|-------------4---------------|
A |--2------------------------|--0------------------------------|-------------------------------|-----------------------------|
E |---------------------------|---------------------------------|--3----------------------------|--2--------------------------|


QUE AHORA PRACTICAN LOS PASILLOS CUANDO EL VIENTO ARAÑA INQUIETO EN EL TEJADO,
E |------------------------2--|------------------------------2--|--------------------------2----|--------------------------2--|
B |----------------2----------|-------------------0-------------|---------------0---------------|------------------2----------|
G |--------4-----------4------|---------4--------------4--------|-------0-------------0---------|--------2-------------2------|
D |------------4--------------|--------------4------------------|------------0------------------|-------------4---------------|
A |--2------------------------|--0------------------------------|-------------------------------|-----------------------------|
E |---------------------------|---------------------------------|--3----------------------------|--2--------------------------|


SUBEN Y BAJAN LA ESCALERA TRAS LOS ECOS DE UNOS PASOS QUE NO SON.
E |------------------------2--|------------------------------2--|--------------------------2----|--------------------------2--|
B |----------------2----------|-------------------0-------------|---------------0---------------|------------------2----------|
G |--------4-----------4------|---------4--------------4--------|-------0-------------0---------|--------2-------------2------|
D |------------4--------------|--------------4------------------|------------0------------------|-------------4---------------|
A |--2------------------------|--0------------------------------|-------------------------------|-----------------------------|
E |---------------------------|---------------------------------|--3----------------------------|--2--------------------------|


SERIA EL HABER DEJADO TANTOS ELEMENTOS DEL DESIGNIO DE LA ALQUIMIA,
E |------------------------2--|------------------------------2--|--------------------------2----|--------------------------2--|
B |----------------2----------|-------------------0-------------|---------------0---------------|------------------2----------|
G |--------4-----------4------|---------4--------------4--------|-------0-------------0---------|--------2-------------2------|
D |------------4--------------|--------------4------------------|------------0------------------|-------------4---------------|
A |--2------------------------|--0------------------------------|-------------------------------|-----------------------------|
E |---------------------------|---------------------------------|--3----------------------------|--2--------------------------|

QUE EL CAMINAR POR LOS ESPACIOS DE TU CASA SIENTO QUE SE ACERCA A TI.
E |------------------------2--|------------------------------2--|--------------------------2----|--------------------------2--|
B |----------------2----------|-------------------0-------------|---------------0---------------|------------------2----------|
G |--------4-----------4------|---------4--------------4--------|-------0-------------0---------|--------2-------------2------|
D |------------4--------------|--------------4------------------|------------0------------------|-------------4---------------|
A |--2------------------------|--0------------------------------|-------------------------------|-----------------------------|
E |---------------------------|---------------------------------|--3----------------------------|--2--------------------------|

Y VUELVO A VER ABIERTA ESTA CASA SIN PUERTAS A LA VERDE TRAMA HERMINIA
E |------------------------2--|------------------------------2--|--------------------------2----|--------------------------2--|
B |----------------2----------|-------------------0-------------|---------------0---------------|------------------2----------|
G |--------4-----------4------|---------4--------------4--------|-------0-------------0---------|--------2-------------2------|
D |------------4--------------|--------------4------------------|------------0------------------|-------------4---------------|
A |--2------------------------|--0------------------------------|-------------------------------|-----------------------------|
E |---------------------------|---------------------------------|--3----------------------------|--2--------------------------|


QUE INSISTE EN TEJER CON SU MANTO ENREDADERA EL PATIO EN DONDE NO TE VI. 
E |------------------------2--|------------------------------2--|--------------------------2----|--------------------------2--|
B |----------------2----------|-------------------0-------------|---------------0---------------|------------------2----------|
G |--------4-----------4------|---------4--------------4--------|-------0-------------0---------|--------2-------------2------|
D |------------4--------------|--------------4------------------|------------0------------------|-------------4---------------|
A |--2------------------------|--0------------------------------|-------------------------------|-----------------------------|
E |---------------------------|---------------------------------|--3----------------------------|--2--------------------------|
            E
   SERIA EL AMOR QUE NO SENTIMOS 
       F#
   O EL AFÁN DE IRTE PONIENDO MIENTRAS
         B
   TANTOS. 
   B*           G           FM#
   TU SONRISA ES UNA FRUTA 
        B
       QUE NO SE DEJA PROBAR.
             B/A             G
   UN PAISAJE QUE DIBUJARÉ
   FM#
   OTRA VEZ EN LIENZO BLANCO, 
          B
   CON LA TIZA DE LA NOCHE,
   FM#
   CON LA CLARIDAD LUNAR.

 Y LAS HOJAS SE LIBERAN COMO PAGINAS DE UN ÁRBOL.
E |------------------------2--|------------------------------2--|--------------------------2----|--------------------------2--|
B |----------------2----------|-------------------0-------------|---------------0---------------|------------------2----------|
G |--------4-----------4------|---------4--------------4--------|-------0-------------0---------|--------2-------------2------|
D |------------4--------------|--------------4------------------|------------0------------------|-------------4---------------|
A |--2------------------------|--0------------------------------|-------------------------------|-----------------------------|
E |---------------------------|---------------------------------|--3----------------------------|--2--------------------------|
 

YO ELABORO EL EQUILIBRIO CON UN ÁBACO INTERIOR,
E |------------------------2--|------------------------------2--|--------------------------2----|--------------------------2--|
B |----------------2----------|-------------------0-------------|---------------0---------------|------------------2----------|
G |--------4-----------4------|---------4--------------4--------|-------0-------------0---------|--------2-------------2------|
D |------------4--------------|--------------4------------------|------------0------------------|-------------4---------------|
A |--2------------------------|--0------------------------------|-------------------------------|-----------------------------|
E |---------------------------|---------------------------------|--3----------------------------|--2--------------------------|


QUE ADIVINO EN LOS PLANETAS Y EN LOS GIROS DE LOS ASTROS,
E |------------------------2--|------------------------------2--|--------------------------2----|--------------------------2--|
B |----------------2----------|-------------------0-------------|---------------0---------------|------------------2----------|
G |--------4-----------4------|---------4--------------4--------|-------0-------------0---------|--------2-------------2------|
D |------------4--------------|--------------4------------------|------------0------------------|-------------4---------------|
A |--2------------------------|--0------------------------------|-------------------------------|-----------------------------|
E |---------------------------|---------------------------------|--3----------------------------|--2--------------------------|

EN LA LONGITUD DEL SUEÑO, Y EN LA LATITUD DEL SOL.
E |------------------------2--|------------------------------2--|--------------------------2----|--------------------------2--|
B |----------------2----------|-------------------0-------------|---------------0---------------|------------------2----------|
G |--------4-----------4------|---------4--------------4--------|-------0-------------0---------|--------2-------------2------|
D |------------4--------------|--------------4------------------|------------0------------------|-------------4---------------|
A |--2------------------------|--0------------------------------|-------------------------------|-----------------------------|
E |---------------------------|---------------------------------|--3----------------------------|--2--------------------------|


TU SONRISA ES ESA AUSENCIA QUE ATESORO PARA SIEMPRE.
E |------------------------2--|------------------------------2--|--------------------------2----|--------------------------2--|
B |----------------2----------|-------------------0-------------|---------------0---------------|------------------2----------|
G |--------4-----------4------|---------4--------------4--------|-------0-------------0---------|--------2-------------2------|
D |------------4--------------|--------------4------------------|------------0------------------|-------------4---------------|
A |--2------------------------|--0------------------------------|-------------------------------|-----------------------------|
E |---------------------------|---------------------------------|--3----------------------------|--2--------------------------|


B                B/A
  ES UNA CASA QUE HA RODEADO

               G    
  UN BOSQUE DE ORO DONDE

  FM#          B    B/A
  NUNCA MAS ESTAS

  G          FM#       E F#
  DONDE NUNCA MAS ESTAS

                 B, B/A, G, FM#
  DONDE NUNCA MAS          ESTAS.

ACORDES:
B   X 2 4 4 2 2
B/A X 0 4 4 0 2
G   3 2 0 0 2 2
FM# 2 4 4 2 2 2
  


ESTO ES TODO CABRONES.

LUEGO LES MANDO EL TAB DE ?DE LAS TARDES?
Suggest correction
Creating personal tab
Creating personal tab
You can edit any tab online and save it as your Personal.

You can edit, replace or remove any tab part or add personal notes – all changes will be seen only by you.

Personal tabs can be accessed anytime from any device, even offline.
Learn more »
Give kudos to tab author, rate the tab!
1 2 3 4 5
comments
print report bad tab
guest
Wanna post a correction for this tab? Suggest correction