Oops, an error
Loading. Please wait.

Coincidir tab

version 4
version 4
31 views 1 this week
no commentswrite comment
1 2 3 4 5
3 more votes to show rating
add to favorites
×
Save as Personal and add changes to this tab that will be seen only by you. Learn more ›
×
You can save this tab as Personal to edit and correct it or add notes. All changes will be seen only by you. Learn more »
launch autoscroll
font size
0
reset
how to read this tab
guitar tuner
edit
Autoscroll
slow
fast
+/-
esc
set tempo
stop
Intro.
Intro2.

      G            G            D
Soy vecino de este mundo por un rato,
          C    C/B    C/A       D/F# G  riff1.
y hoy coincide que también tu estás aquí.
      G             G            D
Coincidencias tan extrañas de la vida.
       C              C/B             C/A  D/F#     riff2.
Tantos siglos, tantos mundos, tanto espacio y coincidir.

Si navego con la mente en los espacios,
o si quiero a mis ancestros retornar,
agoviado me detengo y no imagino.                  Intro2
Tantos siglos tantos mundos, tanto espacio y coincidir.

Si en la noche me entretengo en las estrellas,
y capturo la que empieza a florecer,
la sostengo entre la manos mas me alarma.           riff3
Tantos siglos, tantos mundos, tanto espacio y coincidir.

      A                       E     riff4
Si la vida se sostiene por instantes,
        D             E            A  riff5
y un instante es el momento de existir,
      A                           riff6
Si tu vida es otro instante no comprendo.
       D             E                A    E        F   G  FIN
Tantos siglos, tantos mundos, tanto espacio y coincidir.


Intro:
6|---------------------------------------------------------------------------------------|
5|---------------------------------------------------------------------------------------|
4|-0------------------------------------0------------------------------------------------|
3|---2--------2----------2---------2------2--------2----------2----------2---2---2---2---|
2|-----3--------3----------3---------3------3--------3----------3----------3---3---3---3-|
1|-------3-3------3-3h2------2-2h0------------3-3------3-3h2------2-2h0------------------|

Intro2:

6|-3-------------------------------|
5|---------------------------------|
4|----------------0------------0---|
3|---0----0-0-2-0-2-2--0-0-2-0-2-2-|  Bis.
2|-----3--1-0-0-0---3--1-0-0-0---3-|
1|---------------------------------|

GTR2: (En el Bis.)
3|----------------------------------------------------------------------------|
2|-3-5-3-5---------------------------------3-5------------8-8-----------------|
1|---------2-3-5-7-5/7-5-5---7/8-7-5-3-3-------2-3-5-7-10-----8-7-5-3-2-3/5-5-|


riff1:

  GTR1:           GTR2:
3|-------0-0-0-| |--------------|
2|-3-3-3-3-1-0-| |--------------|
1|-3-2-0-------| |-/8-7-5-3-2-0-|


riff2:

 GTR1:
6|-3-------3-------------------------|
5|-----------------------------------|
4|-----------------0-----------------|  GTR2:
3|-0-0-0-0-0---------------2---------| |-----------------------------|
2|-0-1-0-1-3-0-0-0-3---3-3---3-------| |-3-5-3-5---------------------|
1|-----------0-2-3-2h3-2-2-----3-3H2-| |---------2-3-5-7-5/7-5-5-3-2-|


riff3:

 GTR1:
6|-3-------3-------0-------0---|
5|-----------------2-----------|
4|-----------------2-----------|  GTR2:
3|-0-0-0-0-0-------1-1-1h2---1-| |------------------------|
2|-0-1-0-1-3-0-0-0-0-----------| |-3-5-3-5------------Mi~-|
1|-----------0-2-3-0-----------| |---------2-3-5-7--------|


riff4:

|-0-----------|
|-------------|
|-------------|
|---1-1H2-2-1-|
|-------------|
|-------------|


riff5:

 GTR2:
|--------------------------------|
|-/10-12-10-9-7-5-2--------------|
|-/9--10--9-7-5-4-0--------------|


riff6:

|-0---------0-----|
|-----------------|
|-----------------|
|---1-1H2-2---1---|
|---------------0-|
|-----------------|


FIN:
|-2-2-2-2-2-2-2-2--2------2-|
|-2-3-2-3------------2----2-|
|---------0-2-4-5------5--5-|

|--------------------------14-|
|--------------------------14-|
|-5-7-5-7--9-10-12--16-17--17-|

            
            
Suggest correction
Creating personal tab
Creating personal tab
You can edit any tab online and save it as your Personal.

You can edit, replace or remove any tab part or add personal notes – all changes will be seen only by you.

Personal tabs can be accessed anytime from any device, even offline.
Learn more »
Give kudos to tab author, rate the tab!
1 2 3 4 5
comments
print report bad tab
guest
Wanna post a correction for this tab? Suggest correction