Oops, an error
Loading. Please wait.

Cuento tab

version 2
version 2
15 views 1 this week
no commentswrite comment
1 2 3 4 5
3 more votes to show rating
add to favorites
×
Save as Personal and add changes to this tab that will be seen only by you. Learn more ›
×
You can save this tab as Personal to edit and correct it or add notes. All changes will be seen only by you. Learn more »
launch autoscroll
font size
0
reset
how to read this tab
guitar tuner
edit
Autoscroll
slow
fast
+/-
esc
set tempo
stop
CUENTO versión febrero 13 Vol. 2

No sonará como la toca Fernando pero si se asemeja bastante,
y mejor que la otra tablatura si esta, pero mejor ustedes 
júzguenla. Le agradezco a Jesús Eduardo pues me base en su 
trascripción.

INTRO:
1|---------|e
2|-----3---|b
3|---0-----|g
4|-------0-|D
5|---------|A
6|-3-------|E

1|---------------------3-------------------------3-----|e
2|-----3-----3-----3-----3-------2-----2-----2-----2---|b
3|---0-----0-----0---0-----0---3-----3-----3---3-----3-|g
4|-------0-------------------------0-------------------|D
5|-----------------------------------------------------|A
6|-3-----------3-------------2-----------2-------------|E

1|---------------------0-------------------------2-----|e
2|-----0-----0-----0-----0-------3-----3-----3-----3---|b
3|---0-----0-----0---0-----0---4-----4-----4---4-----3-|g
4|-------2-------------------------4-------------------|D
5|---------------------------2-----------2-------------|A
6|-0-----------0---------------------------------------|E

1|---------------------------2-------2-----|e
2|-----1-----1-----1h0---------3---3---3---|b
3|---0-----0-----0-----0h2-------2-------2-|g
4|-------2-----------------0---------------|D
5|-3-----------3---------------------------|A
6|-----------------------------------------|E

riff 1 (2 veces) 
1|---------------------------------------------------|e
2|-----3-----3-----3-----1h0---------3-------3-------|b
3|---0-----0-----0-----0-----2h0---2---2---2---2-----|g
4|-------0-----------0-------------------0-----------|D
5|---------------------------------------------------|A
6|-3-----------3-----------------2-------------------|E
                    
1|-------------3---------------|-----------------2-----|e
2|-1h0-------------1---------1-|-------1-----3-----3---|b
3|-----2h0---0---0---0-----2---|-----0-----2---2-----2-|g
4|-----------------------2-----|---2-----0-------------|D
5|---------3-----------0-------|-0---------------------|A
6|-----------------------------|-----------------------|E

Riff 1
Nació una flor

Fragante y pura en el jardín del sol

Bajo sus pétalos rozados 
 
Que temblaron humectados

Al audaz suspiro del albor
                 riff 1 (hasta las líneas y va riff 2)
O sensación que es florecer
                           
Y hablo la envidia de otra flor mayor

No dejes que te mire nunca el sol

riff 2 (las notas corresponden con las que están sobre la 
letra de la canción y donde se hace el cambio)

    LAm    SOL             RE/FA#          
1|-----------------3-------------2-------------2-----|e
2|-------1-----3-----3-------3-----3-------3-----2---|b
3|-----2-----0---0-----0---2---2-----2---2---2-----3-|g
4|---2-----------------------------------------------|D
5|-0-------------------------------------------------|A
6|---------3-------------2-------------2-------------|E

    MIm                       SIm  
1|---------------------0-------------------------2-----|e
2|-----0-----0-----0-----0-------3-----3-----3-----3---|b
3|---0-----0-----0---0-----0---4-----4-----4---4-----3-|g
4|-------2-------------------------4-------------------|D
5|---------------------------2-----------2-------------|A
6|-0-----------0---------------------------------------|E

   DO           LAm             SOL            RE
1|---------------------0-------------3-------------2-----|e
2|-----1-----1-----1-----1-------3-----3-------3-----3---|b
3|---0-----0-----2---2-----2---0---0-----0---2---2-----2-|g
4|-------2---------------------------------0-------------|D
5|-3-----------0-----------------------------------------|A
6|---------------------------3---------------------------|E
                  
riff 2
LAm                      SOL          RE/FA#
La estrella ufana ni el ardiente albor
                        MIm
Porque te debes a tu encierro
                       SIm
Y no hay ninguno digno de 
             DO     LAm    SOL
Aspirar tu encanto, tu candor
       RE            riff 1
Así te digo pequeña flor.

Riff 1
Creció la flor

Y fue delicia del jardín del sol

Pero envainada en su capullo 

Por la duda y el orgullo

Que intentara abrir la vieja flor

O tentaciones la flor tembló

Riff 1 (hasta la línea)
Que sola y vana era la vida hasta hoy

No hay nada aparte de esa voz y yo
                        Riff 2
Si todo es malo porque nací flor

Porque soy triste y transparente

Porque zozobra mi razón  
                           DO
Porque oigo trinos tan risueños
      LAm          SOL            RE
Que ruboran mis empeños de guardarme

DESDE AQUÍ EN CADA NOTA SE LLEVA EL SIGUIENTE ARPEGIO A 
EXCEPCIÓN DE LOS RIFFS QUE ESTÁN MARCADOS

1|---------X-----|e
2|-----X-----X---|b  (EL BAJO DEPENDE DE CADA NOTA)
3|---X---------X-|g
4|-------X-------|D
5|---------------|A
6|-X-------------|E

     SOL             RE/FA#
Virginal de sol, de sol.

    SOL               RE/FA#           MIm
Y entonces fue que el sol vertió en cascadas
      SIm          DO        SOL
La ternura y un calor enamorado
         MI7         LAm
En la caricia de su rayo
       RE               SOL
Tibia luz de un beso en mayo
        DO           SOL
Pero al mismo tiempo fue el secreto 
        DO        SOL
Que se cuenta despacito
    LAm         RE REsus4 RE REsus4 RE
Al oído de mi amor.

Riff 1
A ti mi flor
            
Mi niña pura cálida canción
            
Porque te quiero y los temores 
       
Que sembraron viejas flores
                   SOL
En tu pecho se perdieron
       RE/FA#      DO     RE     SOL
Poco a poco con cansada y triste voz
         DO         SOL
Porque invoco la ternura
         RE/FA#        SOL
Que se inventa con mi amor
         DO        SOL
Porque quiero florecer contigo
        RE/FA#          SOL-RE/FA#-MIm-MIm/RE-DO-RE-SOL
Siempre en el jardín del sol.

Acordes
cuerdas         654321

sol             320033
re              000232
re/fa#          200232
resus4          000234
lam             002210
do              032010
mim             022000
mim/re          022030
lam7            002010
sim             224432 

y a los que tienen canciones de Fernando, mándenlas nosotros
también tenemos derecho de poder tocarlas

            
            
Suggest correction
Creating personal tab
Creating personal tab
You can edit any tab online and save it as your Personal.

You can edit, replace or remove any tab part or add personal notes – all changes will be seen only by you.

Personal tabs can be accessed anytime from any device, even offline.
Learn more »
Give kudos to tab author, rate the tab!
1 2 3 4 5
comments
print report bad tab
guest
Wanna post a correction for this tab? Suggest correction