Oops, an error
Loading. Please wait.

De Cercas tab

version 1
version 1

Whole song

7 views 1 this week
no commentswrite comment
1 2 3 4 5
3 more votes to show rating
add to favorites
×
Save as Personal and add changes to this tab that will be seen only by you. Learn more ›
×
You can save this tab as Personal to edit and correct it or add notes. All changes will be seen only by you. Learn more »
launch autoscroll
font size
0
reset
how to read this tab
guitar tuner
edit
Autoscroll
slow
fast
+/-
esc
set tempo
stop
BUENO EN PRIMER LUGAR VOY A LO TIPICO MIS DEDICATORIAS 
#1-A EMMA POR APOYARME EN TODO GRACIAS AMOR
#2-A ICHIMUSAYS POR QUE AHI CRECI COMO GUITARRISTA
#3 A PACO Y A OMAR POR SER BUENOS CUATES
 Y POR ULTIMO A MARYLU GINA Y LUPITA QUE ME APOYARON
AHORA SI VAMOS A LO BUENO:

LA CANCION SE TOCA RAPIDO ASI QUE HAGNLO POCO A POCO 
Y VAN A VER QUE SI OYE BIEN


INTRO:

-------------------------|
--3---3------------------|
---2---2---2-------------|
----0---0--1-------------|
-----1---1-1-------------1
-------------------------|


-------------------------|
--3-----3-----5----------|
---2--2--3--3--5--5------|     X 3
----0--0--2--2--4--4-----|
-----1-----1-----3-------|
-------------------------|


-----------------------------|
--3-----3-----5-----3--------|
---2--2--3--3--5--5--2--0----|      X 2
----0--0--2--2--4--4--0--2---|
-----1-----1-----3-----1-----|
-----------------------------|
TURU TUTIPARA...AQUI SOLO TARAREA


-------------------------------------|
------------------3------5---3-------|
--2---3---5---2---------------2---2--|
---0---2---4---0---2------4----0---0-|
----1---1---3---1---1------3----1----|
-------------------------------------|
  PAM PAM PAM PAM PAM    PAM PAM


TODA LA CANCION LLEVA EL MISMO ACOMPAÑAMIENTO 
Y ARPEGEO: DO,FA,SOL
SOLO ESCUCHA LA CANCION PARA SABER DONDE
LLEVA EL ACOMPAÑAMIENTO DE BAJOS
ESTA MUY FACIL...HASTA LA PROXIMA
ESTA ES MI PRIMERA TRANSCRIPCION SI TIENEN ALGUNA DUDA
O SUGERENCIA SOLO ESCRIBANME YO SI CONTESTO TODOS MIS
MAILS

            
            
Suggest correction
Creating personal tab
Creating personal tab
You can edit any tab online and save it as your Personal.

You can edit, replace or remove any tab part or add personal notes – all changes will be seen only by you.

Personal tabs can be accessed anytime from any device, even offline.
Learn more »
Give kudos to tab author, rate the tab!
1 2 3 4 5
comments
print report bad tab
guest
Wanna post a correction for this tab? Suggest correction