Oops, an error
Loading. Please wait.

El Deseo De Clara tab

version 2
version 2

Whole song

43 views 1 this week
no commentswrite comment
1 2 3 4 5
3 more votes to show rating
add to favorites
×
Save as Personal and add changes to this tab that will be seen only by you. Learn more ›
×
You can save this tab as Personal to edit and correct it or add notes. All changes will be seen only by you. Learn more »
launch autoscroll
font size
0
reset
how to read this tab
guitar tuner
edit
Autoscroll
slow
fast
+/-
esc
set tempo
stop
Estaba viendo la versión del deseo de clara que ya esta y vi que le
Faltan muchos detalles, el intro esta bien, pero le falta mucho a
La canción.
Lo que haré es poner las partes y abajo de esta, los versos en
Que se tocan.
Los riffs son el final de cada verso, son los como requintos de la
Canción.

Primera parte:

1°|-0-------0---|-2-------2-3-|-3-------3---|-----2p0--0--|
2°|-----1-----1-|-----3-------|-----3-----3-|-----1----1--|
3°|-------2-----|-------2-----|-------0-----|-----0----0--|
4°|---2---------|---0---------|---0---------|---2---------|
5°|-0-----------|-0-----------|-------------|-3-----------|
6°|-------------|-------------|-3-----------|-------------|

Esta parte se repite en todos estos versos:

Clara cumplió sus treinta años sin salir de la casa de sus papás.
Nunca tuvo más amiga que su sed de conocer.
Clara no lo conocía, nunca le miró rondando por ahí.
Linda, ¿No estará doña Aurora?, oiga, ¿La podría esperar?
Mientras pasaba la tarde seguían esperando a la doña llegar.
Don Samuel seguría enfermo, tardaban tanto en volver.
Clara le contó de cosas que entre la familia tuvo que esconder
Cuando al fin cayó la noche y la tía no apareció.
Ella se le rindió a la media noche y el cobró el trofeo, y le
Contó que solo.
Para cuando amanecía alguien llamó a la puerta de la habitación.
Su mamá y su padre enfermo le hallaron desnuda y de pie.
Se fue, se fue como los sueños del mañana, cuando la luz se cuela
en la.

Segunda parte:

1°|-0-------0---|-2-------2---|-0-------0---|-------------|
2°|-----1-----1-|-----4-----4-|-----0-----0-|-------5-----|
3°|-------2-----|-------4-----|-------0-----|-----4-----4-|
4°|---2---------|---4---------|---2---------|---0-----0---|
5°|-0-----------|-2-----------|-2-----------|-------------|
6°|-------------|-------------|-------------|-4-----------|

En el jardín y en su cuarto todo tenía el tono de su intimidad.
Simplemente apareció cuando llamó a la puerta preguntando así.
Con seguridad se abría quedado con su esposo allá en el
Hospital.
Su papá se imaginaba gente de la casa que hablaba con él.
Él se cubrió con las mantas y ella abrió la puerta que da
Al corredor.

Tercera parte:

1°|-0-------0---|-0-------2---|-2-------2---
2°|-----1-----1-|-----1-----1-|-----2-----2-
3°|-------2-----|-------2-----|-------2-----
4°|---2---------|---2---------|---4---------
5°|-0-----------|-------------|-4-----------
6°|-------------|-3-----------|-------------

|-------------|-------2-----|
|---5-5-4-4-2-|---4-5---4---|
|-------------|-----------2-|
|-------------|-------------|
|-2-----------|-2-----------|
|-------------|-------------|
Riff1


|-----2p0-0---|-----2p0-0---|-----2p0-0---|
|-----0-----0-|-----0-----0-|-----0-----0-|
|-------------|-------------|-------------|
|---2---------|---2---------|---2---------|
|-2-----------|-0-----------|-2-----------|
|-------------|-------------|-------------|
Riff2

Y los días se sucedían monótonos hasta que el vino a
aparecer. (Riff1)
Era un sobrino del pueblo y ella sin pensarlo lo dejó
pasar. (Riff2)
Que ella le mostró su patio, su jardín sus flores y el
los quiso ver. (Riff1)
Ella le mostró su cuarto y el interesado en este se
quedó. (Riff2)
Estaba sola en su cuarto, ¿se estará enfermando Clarita
también? (Riff1)

Lo que sigue es el coro de la canción, está un poco
difícil, pero no imposible:

|-2-----------|-0-------0---|-2-------2---|-0-------0---|
|-4-----------|-----0-----0-|-----0-----0-|-----0-----0-|
|-4-----------|-------0-----|-------2-----|-------0-----|
|-------1-2-4-|---2---------|---1---------|---2---------|
|-2-2-4-------|-2-----------|-2-----------|-2-----------|
|-------------|-------------|-------------|-------------|

|-------------|---------5---|---------5---|-3-3-3-2-2-0-|
|-----3-----6-|-----5-----5-|-----7-----7-|-3-----------|
|---4-----7---|-------5-----|-------7-----|-0-----------|
|-3-----6-----|---7---------|---7---------|-------------|
|-------------|-7-----------|-5-----------|-------------|
|-------------|-------------|-------------|-3-----------|


|-2-------2---|---7---------|-14-----12-----|-2-------0h2p0--|
|-4-4-------4-|-----8-------|----0------0---|-----3----------|
|-4-----4-----|-------0---0-|------0------0-|-------2--------|
|-----4-------|-------------|-12-----10-----|---0------------|
|-------------|-7-----------|---------------|-0--------------|
|-2-----------|---------12--|---------------|----------------|

|-0-------0h2p0-|-2-------2---|-0-------0---|
|-----1---------|-----4-----4-|-----0-----0-|
|-------2-------|-------4-----|-------0-----|
|---2-----------|---4---------|---2---------|
|-0-------------|-2-----------|-2-----------|
|---------------|-------------|-------------|

|-0---2---3---|
|---0---0---0-|
|-------------|
|-------------|
|-2-----------|
|-------------|
Riff3

|-------------0---|
|-----------0---0-|
|---------0-------|
|-------2---------|
|-0h1-2-----------|
|-----------------|
Riff4

Se repite en:
1° Le abrió con el portón su corazón y mientras esperaban, ella
empezó mostrándole la casa buscando un tema para conversar.
Lo sentó en un sillón y el observó y a veces escuchaba el
natural sonido de esa charla en que se dejaba oír la
soledad. (Riff3)
2° El se paró detrás y comenzó besándola en el cuello,
mientras que ella se desató en silencio el largo atuendo
de su soledad, se dijeron los dos cosas que solo dicen los
amantes, frases privadas que tan hay como antes, tan solo de
debieran murmurar. (Riff4)
3° Clara se estremeció cuando ella le llamó pero el no
estaba, ni su calor, ni su aroma ni nada, nunca se oyó mas
sin razón su voz. (Aquí solo se toca hasta el G y el B
subrayados arriba, además de que el arpegio se cambia al
arpegio del inicio de la canción y a la vez que tocas G y B
cantas: ?pensaría que? y sigues con el resto).

Intermedio de la canción (Solo de guitarra):

|---------8---|---------7---|---------6---|---------5---|
|-----8-----8-|-----7-----7-|-----6-----6-|-----5-----5-|
|---0---0-----|---0---0-----|---0---0-----|---0---0-----|
|-------------|-------------|-------------|-------------|
|-7-----------|-6-----------|-5-----------|-4-----------|
|-------------|-------------|-------------|-------------|

|---------5---|---------3---|-----2h0-0---|-----2h-0----|
|-----4-----4-|-----3-----3-|-----2-----2-|-----1-----1-|
|---0---0-----|---0---0-----|---0---------|---0---------|
|-------------|-------------|-------------|-------------|
|-3-----------|-2-----------|-1-----------|-0-----------|
|-------------|-------------|-------------|-------------|

|---------0---|-----2h3-3---|-------3-----|-----5h0-----|
|-------1---0-|-----3-----3-|-----3---3---|-----------1-|
|-----2-------|-------------|---0-------0-|---------2---|
|---2---------|---0---------|-------------|---2---------|
|-0-----------|-0-----------|-------------|-3-----------|
|-------------|-------------|-3-----------|-------------|

|---------0---|---------2---|---------0---|
|-------1---0-|-------4---4-|-------0---0-|
|-----2-------|-----4-------|-----0-------|
|---2---------|---4---------|---2---------|
|-0-----------|-2-----------|-2-----------|
|-------------|-------------|-------------|


|-------------0-|----0(12)----|
|-----------0---|----0(12)----|
|---------0-----|-------------|
|-------2-------|-------------|
|-0h1-2---------|-------------|
|---------------|-------------|

Y para terminar, los finales.

1° Era el deseo, y que había sido invitado a pasar.
|-0-------0---|-2-------2---|-----2p0-0---|-----2p0-0---|
|-----1-----1-|-----4-----4-|-----0-----0-|-----0-----0-|
|-------2-----|-------4-----|-------------|-------------|
|---2---------|---4---------|---2---------|---2---------|
|-0-----------|-2-----------|-2-----------|-0-----------|
|-------------|-------------|-------------|-------------|

|-----2p0-0---|-----2p0-0---|-0-------0---|-2-------2---|
|-----0-----0-|-----0-----0-|-----1-----1-|-----4-----4-|
|-------------|-------------|-------2-----|-------4-----|
|---2---------|---2---------|---2---------|---4---------|
|-2-----------|-0-----------|-0-----------|-2-----------|
|-------------|-------------|-------------|-------------|

|-0-------0---|-------------|
|-----0-----0-|-------5-----|
|-------0-----|-----4-----4-|
|---2---------|---0-----0---|
|-2-----------|-------------|
|-------------|-4-----------|

2° Ventana, y nos haría pensar que no ocurrió... no no no no no no no
|-0-------0---|-----2----2--|-----2p0-0---|-----2p3-3---|-----2p0-----|
|-----1-----1-|---4---4--4--|-----1-----1-|-----3-----0-|-----0---0---|
|-------2-----|----------4--|-----2-------|-------------|-----0-----0-|
|---2---------|----------4--|---2---------|---0---------|-------------|
|-0-----------|-2--------2--|-0-----------|-0-----------|---2---------|
|-------------|-------------|-------------|-------------|-3-----------|

|-0-------0---|-2-------2---|-0-------0---|-------------|
|-----1-----1-|-----4-----4-|-----0-----0-|-------5-----|
|-------2-----|-------4-----|-------0-----|-----4-----4-|
|---2---------|---4---------|---2---------|---0-----0---|
|-0-----------|-2-----------|-2-----------|-------------|
|-------------|-------------|-------------|-4-----------|

|-----2p0-----|-----------|-----2p0-----|-----------|---------0---|
|---------0---|-3---3-----|---------0---|-3---3-----|-------0---0-|
|-----------0-|---0---0---|-----------0-|---0-------|-----0-------|
|-------------|---------0-|---0---------|-----------|---2---------|
|---2---------|-----------|-0-----------|-------0h1-|-2-----------|
|-0-----------|-----------|-------------|-----------|-------------|

|-------------|-------------|-0(12)-0(7)-0(5)-|----0----|
|-------1h0---|-----------0-|-0(12)------0(5)-|----0----|
|-----2-----0-|---------0---|-----------------|----0----|
|---2---------|-------2-----|-----------------|----2----|
|-0-----------|-0h1-2-------|-----------------|----2----|
|-------------|-------------|-----------------|----0----|

Los acordes utilizados son en orden de uso:
Primera parte: Am, D, G, D
Segunda parte: Am, B, Em, E11/Ab
Tercera parte: Am, Am/G, F#
Coro: B, Em, B7, Em, B°, Am, D, G, B, ¿?, ¿?, D, Am, B, Em

Espero y les sirva, según yo, es muy parecida a la de
Fernando Delgadillo, y dudas y peticiones, escríbanlas
a Armyboy_14@

            
            
Suggest correction
Creating personal tab
Creating personal tab
You can edit any tab online and save it as your Personal.

You can edit, replace or remove any tab part or add personal notes – all changes will be seen only by you.

Personal tabs can be accessed anytime from any device, even offline.
Learn more »
Give kudos to tab author, rate the tab!
1 2 3 4 5
comments
print report bad tab
guest
Wanna post a correction for this tab? Suggest correction