Oops, an error
Loading. Please wait.

El Retocador De Calles tab

version 1
version 1

Whole song

7 views 1 this week
no commentswrite comment
1 2 3 4 5
3 more votes to show rating
add to favorites
×
Save as Personal and add changes to this tab that will be seen only by you. Learn more ›
×
You can save this tab as Personal to edit and correct it or add notes. All changes will be seen only by you. Learn more »
launch autoscroll
font size
0
reset
how to read this tab
guitar tuner
edit
Autoscroll
slow
fast
+/-
esc
set tempo
stop
INTRO:  G  C-G
   G C        G       C G C           G D-G  G C       G            A         G      C        G  D-G
e|-------------------------------------------------------------------------------------------------|
B|------------------------------8-10b-8----------8^5-8-10b-10b---8^10---5^6^5----------------------|
G|-------------------/9-----7^9-----------------------------------------------7--------7-----------|
D|-----5^7^5-/8--7/5-------------------------------------------------------------5-7/8----8^7^5----|
A|-------------------------------------------------------------------------------------------------|
E|-------------------------------------------------------------------------------------------------|
       [-3-]                        1                    1   1                            [-3-] 

  G       C                 G     C                       G       C                G          C
e|----------------------------8-----/15--13-------------------------/10--8^6--------------------|
B|--------8---10-8-10-8-10/12--------------15^13/11-13^11-15-13--------------8^5--/8------------|
G|--7^9^7-----------------------------------------------------------------------7-/7----9^7--/7-|
D|-----------------------------------------------------------------------------------------9----|
A|----------------------------------------------------------------------------------------------|
E|----------------------------------------------------------------------------------------------|
    [-3-]                                                            

      G                 C                G                  D-E-F (bajeo)
Hace tiempo conocí una vulcanizadora en cierta calle trancitada
          G               C                      G           D   G
y allí vivía un tipo solitario que hacía lo que fuera para trabajar
 G                     C                        G              D-E-F (bajeo)
De la misma forma que hay quien con sus manos trajaría construyendo
 G                   C                       G                 G-A-Bb (bajeo)
los domingos por la noche y cuando no había coches cerraba el local


 C                 C                 F                 C
Salía con un pico viejo a vagar errabundo con su bicicleta
 C               C                            F                  D
para dar mantenimiento a un hoyo que alguien se molestó en rellenar
 G                    C    G                     C       
O a practicarle un retoque a un bache junto de un tope
 G                     C                    G                  D   G                
con algo de suerte habría llantas ponchadas o algún rin que enderezar

         G        C    G            C      G             C                 G               D-G
e|------15----10-10-------10---------------------10b-10b-10b-10-----15-17-19-15---10-8-6-----|
B|--/12----------------10b))b-10-8-10---10^8------------------------------------------/10-8--|
G|-------------------------------------------------------------------------------------------|
D|-------------------------------------------------------------------------------------------|
A|-------------------------------------------------------------------------------------------|
E|-------------------------------------------------------------------------------------------|

         G           C            G          C            G           C            G         C
e|------------------------------------10----------------------------------10b-10b-10--10-8^6---|
B|-----8-10b-10b-10b-10-8-------8-10b))))b-8^10^8-------8-10b-10b-10b-10-8-------------------8-|
G|-7^9----------------------7^9---------------------7^9----------------------------------------|
D|---------------------------------------------------------------------------------------------|
A|---------------------------------------------------------------------------------------------|
E|---------------------------------------------------------------------------------------------|


 G                  C                  G                 D-E-F (bajeo)
Los lunes por la mañana se iba a trabajar a la vulcanizadora
 G                   C                     G            D    G
a eso de las ocho y media cualquiera con prisa siempre paga más
 G                      C                   G                 D-E-F (bajeo)
La filosofía que a los carros con llantas nuevas no les pasa nada
 G                       C                   G               G-A-Bb (bajeo)
con la ayuda de un buen bache todo era cuestión de probabilidad


  C                    C                 F               C
Creo que comenzó el negocio quitando la tapa de una coladera
 C                    C                   F                  C
como aumentó la clientela empezó a practicar hoyos aquí y allá
 G                   C     G                    C    
Muchos cambian el camino y él cumpliendo su destino
 G                   C               G            D   G     
tiene que andar retocando calles aledañas para emparejar

G  C  G  C   G   C   G  D-G

  G                  G                    C               C
Fue por de más el empeño que haya puesto gente del ayuntamiento
 G                G               C                      D
la sociedad de colonos y vecinos nunca hayó una explicación
G                G                   C                  C
Al retocador de calles nunca lo vió nadie nunca lo vió nadie
 G                     G                   D                 G-A-Bb (bajeo)
se creyó que eran la lluvias, el camión o resultado del temblor


  C                    C                 F               C
Hace tiempo que no he vuelto a saber nada del retocador de calles
 C                      C                 F             D-E-F (bajeo)
un día me arregló una llanta y muy agradecido le pagué feliz
 G                     C                G                 C
Luego lo encontré una noche de domingo con su pico martillando
 G                C                   G               D    G  
como sé donde trabaja en las mañanas ya no he vuelto por ahí

C  C  G  G  C  C  F  D

G  C  G  C  G  C  G  D-G


ACORDES:
     EbGDAE
C    010233
G    330023
F    112331
D    2320xx
A    02220x

/: deslizar
b: subir tono (1) levantando la cuerda
^: tocar la primera nota y presionar la segunda
b)): subir tono de la primera nota, tocar la nota que sigue, tocar la primera nota en su nota
subida y bajarla a nota original
[-3-]: tercia de notas

            
            
Suggest correction
Creating personal tab
Creating personal tab
You can edit any tab online and save it as your Personal.

You can edit, replace or remove any tab part or add personal notes – all changes will be seen only by you.

Personal tabs can be accessed anytime from any device, even offline.
Learn more »
Give kudos to tab author, rate the tab!
1 2 3 4 5
comments
print report bad tab
guest
Wanna post a correction for this tab? Suggest correction