Oops, an error
Loading. Please wait.

Ensayo De Una Boca tab

version 4
version 4
79 views 1 this week
no commentswrite comment
1 2 3 4 5
3 more votes to show rating
add to favorites
×
Save as Personal and add changes to this tab that will be seen only by you. Learn more ›
×
You can save this tab as Personal to edit and correct it or add notes. All changes will be seen only by you. Learn more »
launch autoscroll
font size
0
reset
how to read this tab
guitar tuner
edit
Autoscroll
slow
fast
+/-
esc
set tempo
stop
Dedicada a CVZ quien bueno, indirectamente me hace aprenderme estas rolas
aunque esta en particular no le guste

intro

e|-----2h0-----------------------0-----------------------------------
B|---------3---0h2h0-------0h2h3-------3-----3-----------3---2h0-----
G|---2-------2-------2---2-----------4-----4-----4-0---0---------2-0-
D|-0-------------------2-----------------4-----------0-----0---------
A|-------------0-------------------2-----------0---------------------
E|-------------------------------------------------3-----------------

----------------0---0-2-3-2h0-----
------------3---0-0-----------0---
2---------2---2-0---------------0-
--0---0-4-------------------------
----0-----------------------------
2---------------0-----------------


e|-------------0---2-----------0--------
B|-0h3-------0---0---3-----2h3---3-3----
G|-----0---0-----------4---2------------
D|-------0-------------------------0----
A|-----------------2-----0--------------
E|-3------------------------------------

la boca..

e|----2-----2-----0-----0-----3-----3-2-----2-----2---------0--------
B|------3-----------3-----------3-------3-----3---------2-----2------
G|--2-----2-----------2-----0-----0-------2-----2-----2-----------0--
D|0-------------2---------------------0-------------------2----------
A|------------0-------------------------------------0-----------2---3
E|------------------------3------------------------------------------

------------------------------
-----------1-------5---5/3--3-
-0h2h0---0-------0---0--------
-------2-------5------------0-
-------------4----------------
------------------------------


su labios...

e|---2h0-----------------0----------------------------------
B|-------3---0h2-------2---2-----3-----3-3-------3-----3-3--
G|-2-------2-----2---2---------4-----4-----4---0-----0-----2
D|---------------------------------4---------------0--------
A|-----------0-----0---------2-----------0------------------
E|-------------------------------------------3-----------2--

-----------0-------2h0---------3-2h0-----
-3-------3---3-3-------3---0---------0---
---0---0---------2-------2---0---------0-
-----------------------------------------
-----0---------0-------------------------
-0-------------------------0-------------

e|---------------0---2-------------0---------2h0----------------
B|---0h3-------0---0---3-----2h3-----3---3-------3---0h2h0------
G|-------0---0-----------4---2---2---------2-------2-------2---2
D|---------0-----------------------------0-------------------2--
A|-------------------2-----0-------------------------0----------
E|-3------------------------------------------------------------

-------0-------------3-2-0-----0h2h0----
-0h2h3---3---3-----3-------3---------3--
-----------0-----0-----------0---------0
---------------2------------------------
---------3---------------------0--------
-------------------------3--------------

su risa...

e|-----2h0-------------0---------------------------------
B|-3-------3-------2-----2---2-----3-----3-3-------3-----
G|---2-------2---2---------2-----4-----4-----4---0-----0-
D|-0-----------------2---------------4---------------0---
A|-------------0---------------2-----------0-------------
E|---------------------------------------------3---------

----------------------------------
3-3---3---------3---3---------3---
----0---2-----2---2---0-----2---2-
----------0-4-----------0-4-------
----------------------------------
--3---2-------------0-------------

e|-----------------------------------------0---
B|-----3-----3-3---3-------3-3---3-------3---3-
G|---4-----4-----0---0---0-----2---0---0-------
D|-------4-------------0-------------2---------
A|-2-----------0-------------------------------
E|-----------------3---------2---0-------------


----------0-----------2-----2-2---------2---
3-------3---3-----3-------3-----2-----2---2-
--0---0---------4-------4-----------2-------
----2---------------4-------------4---------
0-------------2-----------------------------
------------------------------2-------------


e|-------------0---2---------0--------------------
B|-0h3-------0---0---3---2h3---3------------------
G|-----0---0-----------4-2------------------------
D|-------0----------------------------------------
A|-----------------2-----0------------------------
E|-3----------------------------------------------

y si su boca...

e|-----2h0-------------0-------------------------
B|-3-------3-------3-----3-----------0h1h0-------
G|---2-------2---0-----------0---0---------0---0-
D|-0-----------------2-------------2---------0---
A|-------------0-----------2---3-----------------
E|-----------------------------------------------

--------------------------1-----1-------
----------------0-----3-------3---------
--0---0h2h0---0-----3-------3-----------
----0-------0-----------3---------------
------------------1---------------------
3---------------------------------------


e|---------1-----1---------3-----3-2-------2-----
B|-----1-------1-------3-------3-----3-------3---
G|---2-------2-------0-------0---------2-------2-
D|-------3---------------2---------0-----0-------
A|-----------------0-----------------------------
E|-1---------------------------------------------

2-------3---2h0-----------------0-----
--0-------------0---0h3-------0---0---
----0-----0-------0-----0---0---------
------2-------------------0-----------
--------------------------------------
--0-----------------3-----------------


e|-----2-----------0-------2-------2---------------
B|-------3---3-------2---2---3---3---3---3-----3---
G|---4-----4-----2-----2-------2-------2-----0---0-
D|-------------------------0-----------------------
A|-2-----------0---------------------------3-------
E|-------------------------------------------------

3---------------3---------------3------
--3---3-----3-----3---3-----3-----3---3
----0-----0---0-----0-----0---0-----0--
---------------------------------------
--------2---------------1--------------
---------------------------------------


e|-------3-------3-------0---------------0-------
B|-----3-------3-------0---------5---------2---2-
G|---0-------0-------0---------3-------0-----0---
D|---------------------------2-------2-----------
A|---------------------------------0-------------
E|-3-------2-------0-------4---------------------

------5-----3-----2---------3---2h0------
------5-5---3-3---3-3---0-----------0----
----0-----0-----0-----0-0-0---0-------0--
--5---------0-----0----------------------
4----------------------------------------
------------------------0----------------


e|-------------0-------2-----------0-----------
B|-0h3-------0---0-------3---3-------2---2-3---
G|-----0---0---------4-----4-----2-----2-----2-
D|-------0---------------------------------0---
A|-----------------2-----------0---------------
E|-3-------------------------------------------

0h2h0-------0h2h0-------------
------3-----------3-------5---
--------2-----------2-----4---
------------------------2-----
----------3-----------4-------
------------------------------


e|------------------------------------------0----
B|-----3-----3--3---3-------3-3---3-----------3--
G|---4-----4------4---0---0-----2---0-----0------
D|-------4--------------0---------------2--------
A|-2------------0---------------------0----------
E|------------------3---------2---0--------------

aqui juega con el RE, Mimenor, Sol, Simenor, La, como anteriormente
lo habias echo,
solo escucha bien la rola, y despues en el febrero 13 la acaba asi

e|----------------------------------------
B|-3---3---3---3---3---3---3---3---3------
G|---2---2---0---0---2---2---0---0-0------
D|-0---------------0---------------0------
A|----------------------------------------
E|---------3---------------3--------------

            
            
Suggest correction
Creating personal tab
Creating personal tab
You can edit any tab online and save it as your Personal.

You can edit, replace or remove any tab part or add personal notes – all changes will be seen only by you.

Personal tabs can be accessed anytime from any device, even offline.
Learn more »
Give kudos to tab author, rate the tab!
1 2 3 4 5
comments
print report bad tab
guest
Wanna post a correction for this tab? Suggest correction