Oops, an error
Loading. Please wait.

Ensayo De Una Boca tab

version 6
version 6
19 views 1 this week
no commentswrite comment
1 2 3 4 5
3 more votes to show rating
add to favorites
×
Save as Personal and add changes to this tab that will be seen only by you. Learn more ›
×
You can save this tab as Personal to edit and correct it or add notes. All changes will be seen only by you. Learn more »
launch autoscroll
font size
0
reset
how to read this tab
guitar tuner
edit
Autoscroll
slow
fast
+/-
esc
set tempo
stop
****************************************************
****************************************************
Esta obra y cancion se la quiero dedicar a mi novia Miriam S.F.
ala que tanto amo y quiero
eres todo en mi vida! grasias por estar conmigo!TE AMO!!!
Esta cancion es para ti!!

Aclaraciones:
*Lleva capo en el segundo traste.
*les recomiendo afinar su guitarra al tono de la cancion pues esta
un poco abajo del tono universal,
o en caso de tener afinador a 432 estara bien
si 440 es el universal.
*los bajos estan señalados con notas en minuscula(b-c)
y la nota esta  como si no tubiera capo,
asi como toda la cancion,creo que es mas fasil asi.


Intro (2 Veses)
e---------2p0------------------------0--------------
b----------------0h2p0---0-1--0h1h3-----------------
g------2----------------2---------------------------
d----0----------------------------------------------
a--------------0------------------------------------
E---------------------------------------------------


e---------------------------------------------------
b------2-0--------3----2/3--3---3-2p0---------------
g-------------2-4---------------------2-0--2--------
d---------------------------------------------------
a----2-----------------0----------------------------
E---------------------------3--------------3--------


e--------------0--(0)-0-2-3p2-0---------------------
b----------2-3------------------2-------------------
g------2-4------------------------------------------
d----4----------------------------------------------
a---------------------------------------------------
E---------------------------------------------------


e---------------0--------------0--------------------
b------3-0----3-----3-0----2/3-----0-3--------------
g-----------4--------------2------------------------
d---------------------------------------------------
a-------------------2----0--------------------------
E----3----------------------------------------------

D               A                   G
la boca de mi amada es jardin de ceresos
                  D
es fuente de agua pura
                     A                   (B-C) *C* (Fig.1)
y el cuenco en donde abrego y acresento mis ansias
D                 A                  (A-B)A
sus labios son renuevos y sus dientes azucar
      (A)          G (Fig.1.1)
y es perfume su aliento
D                  A
y es perfume su aliento
(Fig.2)
remanso inagotable su voz mientras discurre
me arrulla y me alimenta me acuna y me da consuelo (Fig.3)


(Fig.1)
e--------------------
b--------------------
g---0h2-0------------
d---------2-0---0----
a-------------3------
E--------------------

(Fig.1.1)
e--------------------
b----0-3----3-2/3----
g----------2---------
d--------------------
a--------------------
E--3-----0-----------

(Fig.2)
e------(2p0)--2-3-2-0-------------0-----------------
b---------------------3---3-0----3----3-------------
g---(2)-------------------------4-------------------
d---------------------------------------------------
a-------------------------------------2-------------
E-----------------------3---------------------------

(Fig.3)
e---------2p0------------------------0--------------
b----------------0h2p0---0-1--0h1h3-----------------
g------2----------------2---------------------------
d----0----------------------------------------------
a--------------0------------------------------------
E---------------------------------------------------

e-------------------3-2-0----0h2p0-------
b------2-0--------3-------3--------3-3---
g-------------2-4------------------------
d----------------------------------------
a----2-----------------------------------
E----------------------------------------

D                 A                     (A-B)A
su risa estransparente como el fuego del viento
   (A)           G                          D
me colma cuando rie y cuando se va sonrriendo
                    A
cuado sonrrie por nada
              (A-B)A           (A)           G
y cuando por nada buelbo a invitarle que sonrria
D              A                         G     D A G   (Fig.4)
su risa cristalina es mi dicha y es mi premio  Ohohoooo

(Fig.4)
e-------0--------------2---2--------------
b-----3-----3-0----2/3---3----------------
g---4--------------2----------------------
d-----------------------------------------
a-----------2----0------------------------
E-----------------------------------------

D              A                (B-C)*C*
y si su boca acusa un suspiro de su pecho
                        G
me envuelve y me aprisiona
               (A)A#                    F
me alaga y mas me apresto a reconfortar sus manos
A                D                    Em (Fig.5)
sus labios y su cueyo su vientre de paloma
                  D
y su delicado vuelo
         (A-B) A  (B-A)
y amodo de su boca
              D
es mi boca deseo
               *C*               (C-B)
su boca es la ventana su boca es su secreto
          (B-A)                           (G)
es la cansion del agua y es lenguaje del alma
         (F#)     (E)       (A)          D
y es el amor y el tiempo su boca bien amada

(Fig.5)
e--2-3p2-0-----------
b------------3-0-----
g--------------------
d--------------------
a--------------------
E----------3---------

D              A                   G
la boca de mi amada es jardin de cerezos
             D        A
es huerto de naranjos limones y almendros
                    G                       D
es sombra y es frescura en el molde mas perfecto
                  A
y mi mas caro tesoro
G                                          D
por que hoy me lo da todo si me regala un beso

ACORDES:

G    320003
D    000232
A    002220
Em   022000
F    133411
*C*  032033
A#   013331

Dudas,comentarios o correcciones fabor de enviarmelos a mi correo.

            
            
Suggest correction
Creating personal tab
Creating personal tab
You can edit any tab online and save it as your Personal.

You can edit, replace or remove any tab part or add personal notes – all changes will be seen only by you.

Personal tabs can be accessed anytime from any device, even offline.
Learn more »
Give kudos to tab author, rate the tab!
1 2 3 4 5
comments
print report bad tab
guest
Wanna post a correction for this tab? Suggest correction