Oops, an error
Loading. Please wait.

Esperanza tab

version 2
version 2

Whole song

46 views 1 this week
no commentswrite comment
1 2 3 4 5
3 more votes to show rating
add to favorites
×
Save as Personal and add changes to this tab that will be seen only by you. Learn more ›
×
You can save this tab as Personal to edit and correct it or add notes. All changes will be seen only by you. Learn more »
launch autoscroll
font size
0
reset
how to read this tab
guitar tuner
edit
Autoscroll
slow
fast
+/-
esc
set tempo
stop
pues aqui transcribiendo esperanza,esta sencilla solo escuchenla
 y saquen el arpegeo correcto en cada parte,dedico mi
transcripcion a Richard,donde sea que se encuentre
de aqui saque la transcripcion

21---esperanza    (solo metan todo el link incluyendo lo de abajo)
intro:

e|-----------------3-3-3---------------------0--------------------
B|-----------------3-3-3---------3h5-5---1-------1-------3-----3---
G|---0---0---0---0---0---------------4-0---0---0---0---2---2---2---
D|-0---2---4-------------------2---------------------0-------0-----
A|---------------------------------------0---3---0-----------------
E|-------------3---------3-2-0-------4-------------------------2---
parte 1:

e|-----0-----------------------------------0---0---3---3---2----
B|-1-------1-------3-------3---------3-3-----3---1---1---1---1--
G|---0---0---0---2---2-------2-----0-----1----------------------
D|-------------0---------0-------0-------------2-------0--------
A|-0---3---0---------------------------3------------------------
E|---------------------2-------3--------------------------------
parte 2:

e|-------0---------------------0-------------------
B|-----3---3-------3h5-5---1-------1-------3-----3-
G|-----0-----0-----1h3-4-0---0---0---0---2---2---2-
D|---0-----------2---------------------0-------0---
A|-------------------------0---3---0---------------
E|-3-----------0-------4-------------------------2-
parte 3:

e|-------2-----------2-----------0-----------1-1-----0-----0-----0---
B|-----3---3-------3---3-------0---0-------0-----0-----1-----1-------
G|-----------4-----------4---0-------0---0---------0-----0-----0-----
D|---4-----------4---------------------------------------------------
A|-2-----------2---------------------------------------3-------------
E|-------------------------0-----------3-----------------------------


e|-----------------------------------------------------------------
B|-----3-----3---------3-----3---------3-------5-------2-------5---
G|---4-----4-----4---0-----0-----0-----------4---4---2-------0---0-
D|-----------------------------------2-----2---------------5-------
A|-3-----3-----3-----------------------------------0-----4---------
E|-----------------3-----3-----2---0-----4-------------------------

parte4:

e|----0---------------0---0---3-----------3---3-----
B|------3-------3-3-----3---1---1-------1---1-------
G|--2---------0-----1-----------------2-------------
D|0---------0-------------2---------0---------------
A|----------------3---------------0-----------------
E|--------3-----------------------------------------

donde dice: para olvidar que sufro esta cruel... meten esto

parte5:

e|-----0-----0-------3-----------1-1-----1-----------
B|-------3---------3---3-------0-----0---------------
G|---2-----2-------0-----0---0---------0-------------
D|-0-------------0-----------------------------------
A|---------------------------------------------------
E|-------------3-----------3-------------------------

pero con todo el frenesi repetire...

final:

e|------0-2-----0--------3-----3-2-------0-----------0-------------0----
B|----3-----3----------4---4-----3-----3---3-------1---1---1-----3---3--
G|--2---------2------5-------5---2-----0-----0---0-------0-------0-----0
D|0----------------5-------------0---0-------------------------0--------
A|---------------3-----------------------------3------------------------
E|---------------------------------3-------------------------3----------

e|-3-2-3-3-3-2------------------------------------------------
B|-3-3-3-3-3-3------------------------------------------------
G|-0-2-0-0-0-0------------------------------------------------
D|-0-0-0-0-0-0------------------------------------------------
A|-2-0-0-0-0-0------------------------------------------------
E|-3-2-3-3-3-3------------------------------------------------

el orden de la cancion es el siguiente:
intro,1,2,1,2,1,2,1,2,3,4,2,1,2,1,2,1,2,1,2,1,2,3,5,3,final
por mi parte es todo,suerte. mi correo por cualquier cosa es:
 elchaviz@

            
            
Suggest correction
Creating personal tab
Creating personal tab
You can edit any tab online and save it as your Personal.

You can edit, replace or remove any tab part or add personal notes – all changes will be seen only by you.

Personal tabs can be accessed anytime from any device, even offline.
Learn more »
Give kudos to tab author, rate the tab!
1 2 3 4 5
comments
print report bad tab
guest
Wanna post a correction for this tab? Suggest correction