Oops, an error
Loading. Please wait.

Hoy Ten Miedo De Mi tab

version 11
32 views 1 this week
no commentswrite comment
1 2 3 4 5
3 more votes to show rating
add to favorites
×
Save as Personal and add changes to this tab that will be seen only by you. Learn more ›
×
You can save this tab as Personal to edit and correct it or add notes. All changes will be seen only by you. Learn more »
launch autoscroll
font size
0
reset
how to read this tab
guitar tuner
edit
Autoscroll
slow
fast
+/-
esc
set tempo
stop
                               HOY TEN MIEDO DE MI

Esta canción está padrísima y ojalá que les guste. No lleva capo.


   Intro

    Csus2             G/C   G/B     G/E   G/A     G/D   G       C     C/B
   6/8
    Gtr I
                   4x
||---------8-------||-------------|-------------|-------------|-------------|
||o-----8---------o||-----0-----0-|-----0-----0-|-----0-----0-|-----1-----1-|
||----0---------0--||---0-----0---|---0-----0---|---0-----0---|---0-----0---|
||------------0----||-------------|-------------|-------------|-------------|
||o---------------o||-------------|-7-----------|-5-----------|-3-----2-----|
||--8-----(8)------||-8-----7-----|-------5-----|-------3-----|-------------|


  Em7/A         Dsus4         D               Dsus4
|-------0-----|-------3p2-0-|--2------0h2---|-------3-----|-3---------|
|-----3---3---|-----3-------|-----3-------3-|-----3-----3-|-----------|
|---0-------0-|---2---------|-------2-------|---2-----2---|-----------|
|-------------|-0-----------|-(0)-----------|-0-----------|-----0-----|
|-0-----------|-------------|---------------|-------------|--------2--|
|-------------|-------------|---------------|-------------|-----------|


  G                                                       D/F#
|-------------|---------0-2-|-------------|-------------|-------------|
|-----0-------|-------3-----|-------------|-------------|----------3--|
|---0-------0-|-----2-------|-----------0-|-----------0-|----2---2----|
|-------------|-0h4---------|-------0h2---|-------------|-0-----------|
|-------0h2---|-------------|-0h2h3-------|-------0h2---|-------------|
|-3-----------|-------------|-------------|-0h2h3-------|------2------|


  Em            C             D                         Em7   Dsus4
|-------0-----|-------------|-------2-----|-----------|--------------|
|-----0-------|-------1-----|-----3-------|---------3-|-----3-----3--|
|---0---------|-----0-------|---2---------|-------0---|---0-----0----|
|-------------|---2---------|-0-------2h4-|-5---4-----|-2-----0------|
|---------0h2-|-3-------2h3-|-------------|-----------|--------------|
|-0-----------|-------------|-------------|-----------|--------------|


  C     C/B     Am7   Am7/G   D/F#  D                       G     G/B
|-------------|-------------|-------------|--2------------|--------------|
|-----1-----1-|-----1-----1-|-----3-----3-|---------------|-----0-----0--|
|---0-----0---|---0-----0---|---2-----2---|---------------|---0-----0----|
|-------------|-------------|-------0-----|-(0)---0-------|--------------|
|-3-----2-----|-0-----------|-------------|-----0---3p2-0-|-------2------|
|-------------|-------3-----|-2-----------|---------------|-3------------|


                G             C           Em    Em/D    C     D
|-------------|-------------|----3------|-------------|--------------|
|-------------|-----0-1p0---|-1------1--|-----0-----0-|-----1-----3--|
|---------2p0-|---0-------0-|-----------|---0-----0---|---0-----2----|
|-------0-----|-------0-----|------0----|-------0-----|-------0------|
|-0h2h3-------|-------------|-3---------|-------------|-3------------|
|-------------|-3-----------|-----------|-0-----------|--------------|


  G               Em/D          G               G
|--------3------|-------------|--------3------|---------3-------|
|-----3-----0h1-|-0-----0-----|-----3---------|------3----------|
|---0-----------|---0-----0---|---0---------0-|----0---------0--|
|-----------0h2-|-----0-----0-|-----------0---|------------0----|
|---------------|-------------|---------------|-----------------|
|-3-----(3)-----|-------------|-3-----(3)-----|--3-----(3)------|


 Verso/Estrofa 1
  G               G               G     D/F#    Em    Em/D
|--------3------|--------3------|-------------|-------------|
|-----3---------|-----3---------|-----3-----3-|-----0-----0-|
|---0---------0-|---0---------0-|---0-----2---|---0-----0---|
|-----------0---|-----------0---|-------------|-------0-----|
|---------------|---------------|-------------|-------------|
|-3-----(3)-----|-3-----(3)-----|-3-----2-----|-0-----------|


  C     C/B     Am7   Am7/G   D/F#  C/D     D       D/F#    G     C
|-------------|-------------|-------------|--2------------|--------------|
|-----1-----1-|-----1-----1-|-----3-----3-|-------3-----3-|-----0-----1--|
|---0-----0---|---0-----0---|---2-----2---|-----2-----2---|---0-----0----|
|-------------|-------------|-------0-----|-(0)-----------|--------------|
|-3-----2-----|-0-----------|-------------|---------------|-------3------|
|-------------|-------3-----|-2-----------|---------2-----|-3------------|


  G     D/F#    Em    Em/D    C     D       G             C
|-------------|-------------|-------------|-------------|----3-------|
|-----0-----3-|-----0-----0-|-----1-----3-|-----0-1p0---|-1------1---|
|---0-----2---|---0-----0---|---0-----2---|---0-------0-|------------|
|-------------|-------0-----|-------0-----|-------0-----|------0-----|
|-------------|-------------|-3-----------|-------------|-3----------|
|-3-----2-----|-0-----------|-------------|-3-----------|------------|


  Em    Em/D    C     D       G               Em/D            G
|-------------|-------------|--------3------|-------------||---------3--------||
|-----0-----0-|-----1-----3-|-----3-----0h1-|-0-----0-----||o-----3----------o||
|---0-----0---|---0-----2---|---0-----------|---0-----0---||----0---------0---||
|-------0-----|-------0-----|-----------0h2-|-----0-----0-||------------0-----||
|-------------|-3-----------|---------------|-------------||o----------------o||
|-0-----------|-------------|-3-----(3)-----|-------------||--3-----(3)-------||


 Verso/Estrofa 2
  G               G
|--------3------|--------3------|
|-----3---------|-----3---------|
|---0---------0-|---0---------0-|
|-----------0---|-----------0---|
|---------------|---------------|
|-3-----(3)-----|-3-----(3)-----|


  G     D/F#    Em    Em/D    C             D     D/F#    G     D/F#
|-------------|-------------|-------0-----|-------------|--------------|
|-----3-----3-|-----0-----0-|-----1---1---|-----3-----3-|-----3-----3--|
|---0-----2---|---0-----0---|---0-------0-|---2-----2---|---0-----2----|
|-------------|-------0-----|-------------|-0-----------|--------------|
|-------------|-------------|-3-----------|-------------|--------------|
|-3-----2-----|-0-----------|-------------|-------2-----|-3-----2------|


  Em    Em/D    C     C/B     A7    A7/C#   D             D
|-------------|-------------|-------------|-------3p2-0-|--2-------------|
|-----0-----0-|-----1-----1-|-----2-----2-|-----3-------|-----3-------3--|
|---0-----0---|---0-----0---|---0-----0---|---2---------|-------2---2----|
|-------0-----|-------------|-------------|-0-----------|-(0)-----0------|
|-------------|-3-----2-----|-0-----4-----|-------------|----------------|
|-0-----------|-------------|-------------|-------------|----------------|


  C             D     D/F#    G     D/F#    Em    Em/D    C
|-------0-----|-------------|-------------|-------------|-------0------|
|-----1---1---|-----3-----3-|-----3-----3-|-----0-----0-|-----1---1----|
|---0-------0-|---2-----2---|---0-----2---|---0-----0---|---0-------0--|
|-------------|-0-----------|-------------|-------0-----|--------------|
|-3-----------|-------------|-------------|-------------|-3------------|
|-------------|-------2-----|-3-----2-----|-0-----------|--------------|


  D     D/F#    G             G7            C             D     D#
|-------------|-------3-----|-------1-----|-------0-----|--------------|
|-----3-----3-|-----0---0---|-----0---0---|-----1---1---|-----3-----0--|
|---2-----2---|---0-------0-|---0-------0-|---0-------0-|---2-----2----|
|-0-----------|-------------|-------------|-------------|-0-----1------|
|-------------|-------------|-------------|-3-----------|--------------|
|-------2-----|-3-----------|-3-----------|-------------|--------------|


  Em    Em/D    C     A7/C#     D
|-------------|-------------||--------3p2-0-|
|-----0-----0-|-----1-----2-||o-----3-------|
|---0-----0---|---0-----0---||----2---------|
|-2-----0-----|-------------||--0-----------|
|-------------|-3-----4-----||o-------------|
|-------------|-------------||--------------|


                    Dsus4
|--2------0h2----||-------3-----|--3------3-----|
|-----3-------3-o||-----3-----3-|-------3-----3-|
|-------2--------||---2-----2---|-----2-----2---|
|-(0)------------||-0-----------|-(0)-----------|
|---------------o||-------------|---------------|
|----------------||-------------|---------------|


 Verso/Estrofa 3
  G     D/F#    Em    Em/D    C     C/B       Am7
|-------------|-------------|-------------|-------0-----|
|-----3-----3-|-----0-----0-|-----1-----1-|-----1---1---|
|---0-----2---|---0-----0---|---0-----0---|---0-------0-|
|-------------|-------0-----|-------------|-------------|
|-------------|-------------|-3-----2-----|-0-----------|
|-3-----2-----|-0-----------|-------------|-------------|


  D     D/F#    G     D/F#    Em    Em/D    C     C/B     Am7
|-------------|-------------|-------------|-------------|-------0------|
|-----3-----3-|-----3-----3-|-----0-----0-|-----1-----1-|-----1---1----|
|---2-----2---|---0-----2---|---0-----0---|---0-----0---|---0-------0--|
|-0-----------|-------------|-------0-----|-------------|--------------|
|-------------|-------------|-------------|-3-----2-----|-0------------|
|-------2-----|-3-----2-----|-0-----------|-------------|--------------|


  D     D#      Em            Em/D
|-------------|-------0-----|-------0-----|
|-----3-----0-|-----0---0---|-----0---0---|
|---2-----2---|---0-------0-|---0-------0-|
|-0-----1-----|-2-----------|-0-----------|
|-------------|-------------|-------------|
|-------------|-------------|-------------|


  C             D     D#      Em
|-------0-----|-------------|-------0-----|
|-----1---1---|-----3-----0-|-----0---0---|
|---0-------0-|---2-----2---|---0-------0-|
|-------------|-0-----1-----|-2-----------|
|-3-----------|-------------|-------------|
|-------------|-------------|-------------|


 Coro 1
  Em/D          C             D     D/F#    G     D/F#
|-------0-----|-------0-----|-------------|-------------|
|-----0---0---|-----1---1---|-----3-----3-|-----0-----3-|
|---0-------0-|---0-------0-|---2-----2---|---0-----2---|
|-0-----------|-------------|-0-----------|-------------|
|-------------|-3-----------|-------------|-------------|
|-------------|-------------|-------2-----|-3-----2-----|


  Em    Em/D    C             D     D/F#    G             G7
|-------------|-------0-----|-------------|-------3-----|-------1------|
|-----0-----0-|-----1---1---|-----3-----3-|-----0---0---|-----0---0----|
|---0-----0---|---0-------0-|---2-----2---|---0-------0-|---0-------0--|
|-------0-----|-------------|-0-----------|-------------|--------------|
|-------------|-3-----------|-------------|-------------|--------------|
|-0-----------|-------------|-------2-----|-3-----------|-3------------|


 Coro 2
  C             D     D/F#    G     D/F#    Em    Em/D    C
|-------0-----|-------------|-------------|-------------|-------0------|
|-----1---1---|-----3-----3-|-----0-----3-|-----0-----0-|-----1---1----|
|---0-------0-|---2-----2---|---0-----2---|---0-----0---|---0-------0--|
|-------------|-0-----------|-------------|-------0-----|--------------|
|-3-----------|-------------|-------------|-------------|-3------------|
|-------------|-------2-----|-3-----2-----|-0-----------|--------------|


  D     D/F#    G             G7            C             D     D#
|-------------|-------3-----|-------1-----|-------0-----|--------------|
|-----3-----3-|-----0---0---|-----0---0---|-----1---1---|-----3-----0--|
|---2-----2---|---0-------0-|---0-------0-|---0-------0-|---2-----2----|
|-0-----------|-------------|-------------|-------------|-0-----1------|
|-------------|-------------|-------------|-3-----------|--------------|
|-------2-----|-3-----------|-3-----------|-------------|--------------|


  Em    Em/D    Cadd9         C             Cadd9
|-------------|-------0-----|-------3p0---|-------0-------|
|-----0-----0-|-----3---3---|-----1-----1-|-----3---3-----|
|---0-----0---|---0-------0-|---0---------|---0-------0---|
|-2-----0-----|-------------|-------------|---------------|
|-------------|-3-----------|-3-----------|-3-------------|
|-------------|-------------|-------------|---------------|


 Final
  C             G             C
|-------3p0---|-------3-----|-------0-----|
|-----1-----1-|-----0---0---|-----1---1---|
|---0---------|---0-------0-|---0-------0-|
|-------------|-------------|-------------|
|-3-----------|-------------|-3-----------|
|-------------|-3-----------|-------------|


  G             Dsus4         D       Dadd9
|-------3-----|-------3-----|--2------0-----|
|-----0---0---|-----3---3---|-----3-----3---|
|---0-------0-|---2-------2-|-------2-----2-|
|-------------|-0-----------|-(0)-----------|
|-------------|-------------|---------------|
|-3-----------|-------------|---------------|


  G     D/F#    Em    Em/D    C     D       G
|-------------|-------------|-------------|-----------*|
|-----3-----3-|-----0-----0-|-----1-----3-|---0h1-0---*|
|---0-----2---|---0-----0---|---0-----2---|---0-0-0---*|
|-------------|-------0-----|-------0-----|---0h2-0---*|
|-------------|-------------|-3-----------|-----------*|
|-3-----2-----|-0-----------|-------------|-3-----3---*|


***************************************************************************************
* Generado usando Power Tab Editor por Brad Larsen-  *
***************************************************************************************

            
            
Suggest correction
Creating personal tab
Creating personal tab
You can edit any tab online and save it as your Personal.

You can edit, replace or remove any tab part or add personal notes – all changes will be seen only by you.

Personal tabs can be accessed anytime from any device, even offline.
Learn more »
Give kudos to tab author, rate the tab!
1 2 3 4 5
comments
print report bad tab
guest
Wanna post a correction for this tab? Suggest correction