Oops, an error
Loading. Please wait.

Hoy Ten Miedo De Mi tab

version 7
19 views 1 this week
no commentswrite comment
1 2 3 4 5
3 more votes to show rating
add to favorites
×
Save as Personal and add changes to this tab that will be seen only by you. Learn more ›
×
You can save this tab as Personal to edit and correct it or add notes. All changes will be seen only by you. Learn more »
launch autoscroll
font size
0
reset
how to read this tab
guitar tuner
edit
Autoscroll
slow
fast
+/-
esc
set tempo
stop
chords arpegiados
     G      G/D      F#/D    E/D     D/G     C/D     B/D     A/D     D  e|-----3--|------x|------x|------x|------x|------x|------x|------x|------3--2--0p2--|
B|----3--3|-----3-|-----3-|-----3-|-----3-|-----3-|-----3-|-----3-|-----3-3--3----3-|
G|---0--0-|----0--|----0--|----0--|----0--|----0--|----0--|----0--|----2---2--2-----|
D|--x-----|---x---|---x---|---x---|---0---|---x---|---x---|---x---|---0-------------|
A|-x------|--x----|--x----|--x----|--x----|--3----|--2----|--0----|--x--------------|
E|3-------|-3-----|-2-----|-0-----|-x-----|-x-----|-x-----|-x-----|-x---------------|

    D#*       E*       D*         C          C*
e|------x|------0--|------0--|------0--|------0----|
B|-----0-|-----0--0|-----0--0|-----1--1|-----3--3--|
G|----0--|----0--0-|----0--0-|----0--0-|----0--0---|
D|---1---|---2-----|---0-----|---x-----|---x-------|
A|--x----|--x------|--x------|--3------|--3--------|
E|-x-----|-x-------|-x-------|-x-------|-x---------|

INTRO

e|-----8------8------8------8---------------------------------------0-------3---2---0h2-----|
B|----8--8---8--8---8--8---8--8----8---8---8---0---0---0---1---0---3-3-----3-3---3------3---|
G|---0--0---0--0---0--0---0--0----0---0---0---0---0---0---0---0---2---2---2---2---2---------|
D|---------------------------------------------------------------0-------0------------------|
A|---------------------------------------7---0---5-------3---2------------------------------|
E|--8------8------8------8-------8---7---------------3--------------------------------------|

e|----3---2---0h2--------3--------0----------0----------------0----------0--------2---|
B|---3-3---3------3-----3--------3----------1--------3---3---3----------1--------3----|
G|--2---2---2----------0--------2----------0--------0---0---0----------0--------2-----|
D|-0---------------------------4-----------------------------------------------0------|
A|-------------------------0h2-------0h2-3-----------------------0h2-3------2h3-------|
E|--------------------3------------------------0h2-3---2---0--------------------------|

e|-------3-------------------------------------2-------------------3-----|
B|------3----3---3---3----1---1---1---1---1---3-3-----------------3------|
G|-----0----0---0---0----0---0---0---0---0---2---2---------------0-------|
D|--2h4----4---2---0------------------------0-----0----0-----------------|
A|----------------------3---2---0------------------------3-2-0-----------|
E|----------------------------------3---2-------------3---------3--------|

e|-----------3------------------3-----3-------3-------3-------3-------3-----|
B|-----------1---1---0-0-------3-----3--3----3--3----3--3----3--3----3--3---|
G|---------0-----0---0-0------0-----0--0----0--0----0--0----0--0----0--0----|
D|-----------2--------------------------------------------------------------|
A|--0h2--3-------3-------2h3------------------------------------------------|
E|-------------------3-3-----3-----3-------3-------3-------3-------3--------|


                     G/D      F#/D     E/D
hoy que llevo en la boca el sabor a vencido
    D/G    C/D      B/D       A/D
procura tener a la mano a un amigo
     G/D       F#/D      D
que cuide tu frente y tu voz
                G/D    F#/D      E/D
y que cuide de ti para ti tus vestidos
     D/G     C/D        B/D      D/G
y a tus pensamientos mantenlos atentos
     D/G        G
y a mano a tu amigo


RIFF1

                   G/D
la importancia de verte
   F#/D       E/D        D/G    C/D    D
morderte los labios de preocupacion...
               G/D     F#/D       E/D
es hoy tan necesaria como verte siempre 
    D/G       C/D       B/D     A/D         G/D     D
como estar siguiendote con la cabeza en la imaginacion
                C/D                  D
porque sabes, y si no lo sabes no importa
              G/D       F#/D       E/D       D/G       C/D   D
yo se lo que siento, yo se lo que cortan despues unos labios
               G
esos labios rojos y afilados
                   C/D
y estos puños que tiemblan de rabia
      D
cuando estas contenta
        G/D         F#/D
y que tiemblan de muerte 
        E/D        D/G       D  D  D
si alguien se te acercara a ti


                  G/D      F#/D      E/D
hoy procura que aquella ventana que mira 
      D/G         C/D      B/D     A/D   D
a la calle en tu cuarto se tenga cerrada
                   G/D      F#/D         E/D
por que no vaya a ser yo el viento de la noche
      D/G      C/D      B/D         A/D
y te mida y recorra la piel con mi aliento
     B/D      C/D         D#*     E*  D*
y hasta te acaricie y te deje dormir
                 C                    D
y me meta en tu pecho y me vuelva a salir
              E*   D*
y respires de mi...
                   C                           D
o me vuelva una estrella y te estreche en mis rayos
                G/D      F#/D    E/D
y todo por no hacerme un poco de caso 
     D/G      C    D                 G
ten miedo de mayo.... y ten miedo de mi
                  C                  D
porque no vaya a ser que cansado de verte
                G/D      F#/D   E/D
me meta en tus brazos para poseerte 
        D/G        C     D
y te arranque las ropas
               G
y te bese los pies
               C                  D
y te llame mi diosa y no pueda mirarte de frente
      G/D    F#/D      C*  C*  C*  C*
y te diga llorando despues...
                 G 
por favor tenme miedo
C                 G          D
tiembla mucho de miedo mujer
                   G/D  F#/D  E/D  D/G  C/D  B/D  D/G  G
porque no puede ser....

RIFF1
     
e|----3----------------------0--------------0-----|
B|---3--3----3-------------3--------------1-------|
G|--0--0----0------0-----2--------------0---------|
D|---------------------4--------------------2-----|
A|-------------0h2---------------0h2--3-----------|
E|-3-------3--------------------------------------|

e|---------------------0-----------3------------------3-----3-------3----|
B|----------3----3----3------------1---1---0-0-------3-----3--3----3--3--|
G|---------0----0----0-----------0-----0---0-0------0-----0--0----0--0---|
D|---------------------------------2-------------------------------------|
A|------------------------0h2--3-------3-------2h3-----------------------|
E|--0h2--3----2----0-----------------------3-3-----3-----3-------3-------|
Suggest correction
Creating personal tab
Creating personal tab
You can edit any tab online and save it as your Personal.

You can edit, replace or remove any tab part or add personal notes – all changes will be seen only by you.

Personal tabs can be accessed anytime from any device, even offline.
Learn more »
Give kudos to tab author, rate the tab!
1 2 3 4 5
comments
print report bad tab
guest
Wanna post a correction for this tab? Suggest correction