Oops, an error
Loading. Please wait.

La Isla tab

version 2
version 2

Whole song

7 views 3 this week
no commentswrite comment
1 2 3 4 5
3 more votes to show rating
add to favorites
×
Save as Personal and add changes to this tab that will be seen only by you. Learn more ›
×
You can save this tab as Personal to edit and correct it or add notes. All changes will be seen only by you. Learn more »
launch autoscroll
font size
0
reset
how to read this tab
guitar tuner
edit
Autoscroll
slow
fast
+/-
esc
set tempo
stop
Esta cancion es otra mas del maestro delgadillo,aqui les dejo una
tablatura correcta para que la añadan a su repertorio,
 no puse la letra por flojo, pero ya se encuentran en la red
versiones muy claras de esta rola,la cancion que casi siempre
 toca despues es la de trino, igual les dejo las pisadas pa que
 se den una idea, quiero dedicar esta transcripcion a mi mas reciente
 hijo de peluche, el sr. cerdo, y a la personita que me lo
regalo tambien, sin ellos no me hubiera puesto contento y no habria
echo este trabajo, en fin, esta rola
dice asi...

intro:

e|----2h0-----5-----5-3----3-----2h0-----2h0-----0-------0-----3------2h0--
B|--------3-------5------3---2-------3-------3---------0---3-----3-2------2
G|--2-------2---0-------0------0--------2------2---1h2-------3-------0-----
D|0-----------------------------------0------------------------------------
A|------------4-------2------1-------------------------------------0-------
E|-----------------------------------------------0---------3---------------

e|3---2h0-----5-----5-3-----3-----2h0-------2h0-----0-----0-----3-------2--
B|--------3-------5-------3---2-------3---------3-------0---3-----3-2------
G|--2-------2---0-------0-------0---------2-------2---1-------3-------0----
D|0-------------------------------------0----------------------------------
A|------------4-------2-------1-------------------------------------0------
E|--------------------------------------------------0-------3--------------

parte 1:

e|-----2h0-----5-----5-3-----3-----2h0-------2h0-----------------3---------
B|---------3-------5-------3---2-------3---------3-------5---3-----3-----3-
G|---2-------2---0-------0-------0---------2-------2-----4-----3---------0-
D|-0-------------------------------------0-------------2---2-----------2---
A|-------------4-------2-------1-------------------------------------0-----
E|---------------------------------------------------4-------3-------------

  vendra el dia...

e|------------------------------------------------------0---2---3----------
B|-----3-------3-------3------3-----------------3-------2---2---2----------
G|-0-------2-------0-------2--------0---2---------1-------1---1------------
D|---0---0---0---0---0---0---0--------0---0-----------2--------------------
A|--------------------------------------------2-----0----------------------
E|-3-------2-------3-------2--------3---2---0------------------------------

parte 2:

e|-----2--------2-----------0---2------------------------------------------
B|-------3--------3-------3-1-----1-----3-------3-------3-------3----------
G|---2--------2---------4---2-2-----0-------2-------0-------2--------------
D|-0------------------4-----2---------0---0---0---0---2---2---0---0--------
A|----------4-------2-------0----------------------------------------------
E|----------------------------------3-------2-------0-------2--------------

e|------------------------------------------------------0---2---3----------
B|-----3-------3-------3------3-----------------3-------2---2---2----------
G|-0-------2-------0-------2--------0---2---------1-------1---1------------
D|---0---0---0---0---0---0---0--------0---0-----------2--------------------
A|--------------------------------------------2-----0----------------------
E|-3-------2-------3-------2--------3---2---0------------------------------


el orden sale rapidamente al escuchar la cancion, despues del intro,
se toca la parte 1 dos veces, despues la 2 , otra vez la 1 y por
 ultimo la 2, despues es donde empieza la de trino,los acordes y el
 orden me parece son estos.


      A    B    C    D      E    F    G    h     i    j    k    l

e|----2----2----2----2------5----5----5----5-----3----2----3----0------
B|----3----3----3----3------3----3----3----3-----3----3----3----3------
G|----2----0----0----0------2----0----0----0-----0----0----0----0------
D|----0----0----0----2------0----0----0----2-----2----2----0----2------
A|----0----0----2----0------0----0----2----0-----3----2----2----0------
E|----0----3----0----0------0----3----0----0-----0----0----3----0------

orden

intro verso 1:

A,B,C,D  x4

despues:

e,f,g,h,a,b,c,d

ahora el cambio es:

a,i,j,i,j,k,i  x2

despues creo ya todo se repite e excepcion de una ligera variacion al final
,pero pueden darse cuenta rapidamente,espero les sirva este trabajo,
cualquier duda, aqui les dejo mi correo. elchaviz@ suerte

p.d. en la de trino el fer suele jugar con la primera cuerda
cambiandola del traste 2 al 3 denuevo al 2 , al 0 y al 2,
casi es siempre ese orden
Suggest correction
Creating personal tab
Creating personal tab
You can edit any tab online and save it as your Personal.

You can edit, replace or remove any tab part or add personal notes – all changes will be seen only by you.

Personal tabs can be accessed anytime from any device, even offline.
Learn more »
Give kudos to tab author, rate the tab!
1 2 3 4 5
comments
print report bad tab
guest
Wanna post a correction for this tab? Suggest correction