Oops, an error
Loading. Please wait.

Mi Tiempo tab

version 1
version 1

Whole song

11 views 1 this week
no commentswrite comment
1 2 3 4 5
3 more votes to show rating
add to favorites
×
Save as Personal and add changes to this tab that will be seen only by you. Learn more ›
×
You can save this tab as Personal to edit and correct it or add notes. All changes will be seen only by you. Learn more »
launch autoscroll
font size
0
reset
how to read this tab
guitar tuner
edit
Autoscroll
slow
fast
+/-
esc
set tempo
stop
(CAPO EN EL 3 TRASTE)
E------------------------------------------
B----------------------------------------------
G----------------------------------------------
D------------------------------------------------
A---2-2---4-4----5-5----4----2-2---4-4----5-5--4-------
E---0-0---0 0----0-0----0----0-0---0-0----0-0--0----2-3
                   E 
E----------------------------------------------
B------------------------------------------------
G-------------------------------------------------
D--2-2----4-4--5-5---4---2-2---4-4--5-5--4----------
A--0-0----0-0--0-0---0---0-0---0-0--0-0--0----------
E-------------------------------------------2-3----
                     A 
E----------------------------------------------------
B----------------------------------------------------
G---------------------------------------------------
D--------------------------------------------------
A---2-2----5-5--4-4--3-3--2--0--1-2------------------
E---0-0----0-0--0-0--0-0--0----------0--232--0--------
               A&
E---2------------
B---2-----4------
G---2-----4------
D---2-----4------
A---2------------
E---2------------
      B

E 
Si antes decia

-oye todo esta bien-
E 
y con los gringos

nos hicieron tener
   A 
un pacto de libre comercio

nunca imaginamos
                 E 
pagar tan alto precio
 B                   A
Bush firmo con Salinaas
                            A&
Y ahi empezo el hambre asesina.

E 
Ahora te digo

Que todo esta igual,
E 
El comunismo ya no supo alcanzar.
A 
La era del consumismo
                  E 
Es la moda mas actual
   B                   A
Lo mismo gana un taxista
                       A&
Que un doctor profesionista.(REQUINTO)

E 
Tecnologias de la modernidad
E 
Nuevos conceptos

Realidad virtual
    A 
Creimos ser primer mundo,

Nos enchufaron
        E 
Y aprendimos de un segundo
          B                 A
Que la imagen tercer mundista
                             A&
Es premio Nacional a economistas.

E 
Sali a las calles a buscar un lugar
 E 
Y en el 'newspaper'

Brilla la sociedad
  A 
Buscamos un nuevo empleo,
                   E 
Ambulante o tragafuego
      B              A
Limpiador de parabrisas
                   A&
o Cantante en telerisa.

E 
!Hey men! Quisiera

ahora ser como tu
E 
irme p'al norte

y cantar este blues.
A 
Pero con la migra racista
                        E 
No creerian que soy turista.
  B                          A
Mejor me inscribo a la olimpiada
                           A&
y compito como espalda mojada.

E 
Mi tiempo exige

Un futuro mejor
E 
Pasan los dias

Y estamos mucho peor
A 
La crisis no tiene salida
                             E 
La muerte nos tiene en la mira.

B                    A
'Onde quedo la comida
                          A&
y el bienestar para la familia

E 
Rastros muy claros

De la devaluacion
E 
Producto innato

De esta corrupcion
A 
Politicos que se ofrecen
                     E 
A cuidar sus intereses
       B                 A
Si el pueblo no dice nada
                         A&
Nos va a llevar laa... que seeeaaaaaa..

(REQUINTO)
E--7-7-7-7-----7-------7-----10-------------------
B-----------9-----9---------------10--10----------
G------------------9------------------------9-----
D-------------------------------------------------
A-------------------------------------------------
E-------------------------------------------------

(CUALQUIER SUGERENCIA)

     
Suggest correction
Creating personal tab
Creating personal tab
You can edit any tab online and save it as your Personal.

You can edit, replace or remove any tab part or add personal notes – all changes will be seen only by you.

Personal tabs can be accessed anytime from any device, even offline.
Learn more »
Give kudos to tab author, rate the tab!
1 2 3 4 5
comments
print report bad tab
guest
Wanna post a correction for this tab? Suggest correction