Oops, an error
Loading. Please wait.

Minuet Platonico tab

version 1
version 1

Whole song

25 views 3 this week
no commentswrite comment
1 2 3 4 5
3 more votes to show rating
add to favorites
×
Save as Personal and add changes to this tab that will be seen only by you. Learn more ›
×
You can save this tab as Personal to edit and correct it or add notes. All changes will be seen only by you. Learn more »
launch autoscroll
font size
0
reset
how to read this tab
guitar tuner
edit
Autoscroll
slow
fast
+/-
esc
set tempo
stop
variable cada vez que toca una cancion,esta no es la excepcion,
eh oido como 15 versiones distintas de minuet platonico y todas se
parecen, pero si varian,esta version esta basada un tanto en este
video, 
 pero siendo honestos, lo mejor que pueden hacer es ver
las pisadas de lo que tabule y sacar arpegeos improvisador
como lo hace el fer, de todos modos,al tocar lo que puse y ver
el video,veran que esta bien tabulado,la cancion es muy
repetitiva toquen la parte 1, y despues 2veces la dos,y asi
 transcripcion se la dedico a mi musa de todos
los dias "RMS",para cualquier cosa mi correo es elchaviz@hotmail


parte 1

e|---------------------0----------2---------------3h0---------------0----
B|-----0---3---2h0-2----------5-----4-----------------0---3-----0h2---2--
G|-1h2---1---1-------2--------------------2---1---------1----------------
D|-------------------------4----4-------2---2---2-------------2----------
A|-------------0---------2----------------------------------0------------
E|-0----------------------------------0-----------0----------------------

e|---------2-------0-------------------------------------------------
B|-----5-----4-----0-------------------------------------------------
G|-------------------------------------------------------------------
D|---4---4-------2---------------------------------------------------
A|-2-----------------------------------------------------------------
E|-------------0-----------------------------------------------------

parte 2

e|---------------------0-----------0----------2------------------------0---
B|---------0---------2---------------0-----5-----4---------0---------2-----
G|-----1-----1-----2-----2-----1-----------------------1-----1-----2-----2-
D|---2---2-------2-----------2---2-------4---4-------2---2-------2---------
A|-------------0-----------------------2-----------------------0-----------
E|-0-----------------------0-----------------------0-----------------------

e|---------0-0--------------------------------
B|-------5-0-0--------------------------------
G|-----1-2------------------------------------
D|---2----------------------------------------
A|-------2------------------------------------
E|-0---------0--------------------------------
Suggest correction
Creating personal tab
Creating personal tab
You can edit any tab online and save it as your Personal.

You can edit, replace or remove any tab part or add personal notes – all changes will be seen only by you.

Personal tabs can be accessed anytime from any device, even offline.
Learn more »
Give kudos to tab author, rate the tab!
1 2 3 4 5
comments
print report bad tab
guest
Wanna post a correction for this tab? Suggest correction